Silverchair - Suicidal Dream Chords & Tabs

 

Suicidal Dream Chords & Tabs

Silverchair Chords & Tabs

Version: 1 Type: Bass Tab 0 ratings
1 star 2 stars 3 stars 4 stars 5 stars
comments

Suicidal Dream Bass Tab

Song Title : Suicidal Dream
Artist     : Silverchair
Tabbed By  : Wade Vassallo (wade_mail@email.com)


Intro:

G|-----------------------------------------------------------------------|
D|-----------------------------------------------------------------------|
A|--2*----2*--------------0--2*------------------------------------------|
E|------------3*--0*--2*---------3*--0*----------------------------------|


Verse:

G|-----------------------------------------------------------------------|
D|-----------------------------------------------------------------------|
A|--2*--------------0--2*--------------0--2*--------------0--2*----------|
E|------3*--0*--2*---------3*--0*--2*---------3*--0*--2*---------3*--0*--|


Chorus1:

G|-----------------------------------------------------------------------|
D|-----------------------------------------------------------------------|
A|--2*-------------------------------------------------------------------|
E|------2*--0*--3*-------------------------------------------------------|


Bridge:
[ Tab from: http://www.guitartabs.cc/tabs/s/silverchair/suicidal_dream_btab.html ]
G|-----------------------------------------------------------------------|
D|-----------------------------------------------------------------------|
A|--2*--5*----------2*--5*----------5-4-0-2*--5*-------------------------|
E|----------3*--2*----------3*--2*----------------3*--2*-----------------|


Chorus2:

G|-----------------------------------------------------------------------|
D|-----------------------------------------------------------------------|
A|--2-2------------------------------------------------------------------|
E|-------2--2-2-2--0-0--3--3-3-3-----------------------------------------|


Chorus3:

G|-----------------------------------------------------------------------|
D|-----------------------------------------------------------------------|
A|--2-2-2----------------------------------------------------------------|
E|--------2-2-2-2-2-0-0-0-3-3-3-3-3--------------------------------------|


Outro:

G|-----------------------------------------------------------------------|
D|-----------------------------------------------------------------------|
A|--2-2-2--------------------------2*------------------------------------|
E|--------2-2-2-2-2-0--0--0--3*------------------------------------------|


Song Structure:

Intro   : x1
Verse   : x2
Chorus1 : x4
Verse   : x1
Chorus1 : x4
Bridge  : x1
Chorus2 : x3
Chorus3 : x4
Outro   : x1

Comments