Silverchair - Studio Sounds Chords & Tabs

 

Studio Sounds Chords & Tabs

Silverchair Chords & Tabs

Version: 1 Type: Tab 0 ratings
1 star 2 stars 3 stars 4 stars 5 stars
comments

Studio Sounds Tab

   
studio sounds by SilverChair
Tabbed by: Boy Friday 


Dropped-D tuning / accordage en Dropped-D.
-------------------------------------
TABBED BY: Boy Friday
-------------------------------------

[0:00] "studio sounds"

[0:17] drums in

[0:28] guitars in - main riff
rhythm guitar
    B    A B A B E F  C  D     B    A B A B E F  C  D
e|--------------------------|--------------------------|
B|--------------------------|--------------------------|
G|--------------------5-----|--------------------5-----|
D|--7-7--5-7-5-7-2-3--5--0--|--7-7--5-7-5-7-2-3--5--0--|
A|--7-7--5-7-5-7-2-3--3--0--|--7-7--5-7-5-7-2-3--3--0--|
D|--7-7--5-7-5-7-2-3-----0--|--7-7--5-7-5-7-2-3-----0--|
lead guitar
e|--------------------------|--------------------------|
B|--------------------------|--------------------------|
G|--------------------------|--------------------------|
D|--------------------------|--------------------------|
A|-/7-----------------------|--5-5h7-------------------|
D|--------------------------|--------------------------|


rhythm guitar
    B    A B A B E F  C  D     B    A B A B E F  C  D
e|--------------------------|--------------------------|
B|--------------------------|--------------------------|
G|--------------------5-----|--------------------5-----|
D|--7-7--5-7-5-7-2-3--5--0--|--7-7--5-7-5-7-2-3--5--0--|
A|--7-7--5-7-5-7-2-3--3--0--|--7-7--5-7-5-7-2-3--3--0--|
D|--7-7--5-7-5-7-2-3-----0--|--7-7--5-7-5-7-2-3-----0--|
lead guitar
e|--------------------------|--------------------------|
B|--------------------------|--------------------------|
G|--------------------------|----------5---------------|
D|--------5-7---------------|--------7-----------------|
A|--5-5h7-------------------|--5-5h7-------------------|
D|--------------------------|--------------------------|


[0:50] Verse - guitars out
We are the youth, we'll take your fascism away
We are the youth, apologise for another day
We are the youth, and politicians are so sure
We are the youth, and we are knocking on death's door
[ Tab from: http://www.guitartabs.cc/tabs/s/silverchair/studio_sounds_tab.html ]
[1:11] Chorus
rhythm guitar
   B    A B A B E F  C  D        B    A B A B E F  C  D
|--------------------------||------------------------------|| x3
|--------------------------||------------------------------||
|--------------------5-----||-o--------------------5-----o-||
|--7-7--5-7-5-7-2-3--5--0--||-o--7-7--5-7-5-7-2-3--5--0--o-||
|--7-7--5-7-5-7-2-3--3--0--||----7-7--5-7-5-7-2-3--3--0----||
|--7-7--5-7-5-7-2-3-----0--||----7-7--5-7-5-7-2-3-----0----||
lead guitar
|--------------------------||------------------------------|| x3
|--------------------------||------------------------------||
|--------------------------||-o--------------------------o-||
|--------------------------||-o-------5------------------o-||
|-/7--------7--------------||----5-5h7---------------------||
|--------------------------||------------------------------||
Never knew we were living in a world with a mind that could be so sure
Never knew we were living in a world with a mind that could be so small
Never knew we were living in a world and the world is an open court
Maybe we don't want to live in a world where innocence is so short

[1:33] Break
  A   D#
|-------|
|-------|
|-------|
|-7---1-|
|-7---1-|
|-7---1-|
We'll make it up to you in the year 2000 with...

[1:39] Lead part
||-------------------||x2
||-------------------||
||-o---------------o-||
||-o------5---5----o-||
||----5s7---5---3----||
||-------------------||

[1:49] Verse
||-------------------||x4
||-------------------||
||-o---------------o-||
||-o------5---5----o-||
||----5s7---5---3----||
||-------------------||
Never knew we were living in a world with a mind that could be so sure
Never knew we were living in a world with a mind that could be so small
Never knew we were living in a world and the world is an open court
Maybe we don't want to live in a world where innocence is so short

[2:11] Chorus
      B    A B A B E F  C  D
||------------------------------|| x4
||------------------------------||
||-o--------------------5-----o-||
||-o--7-7--5-7-5-7-2-3--5--0--o-||
||----7-7--5-7-5-7-2-3--3--0----||
||----7-7--5-7-5-7-2-3-----0----||
We'll make it up to you in the year 2000
Build it up for you in the year 2000
Make it up to you in the year 2000
Build it up for you in the year 2000 with you...

[2:32] Bridge
      B        C  D
||-----------|-----------|| x2
||-----------|-----------||
||-o---------|---------o-||
||-o--7-7----|-10-0-0--o-||
||----7-7----|-10-0-0----||
||----7-7----|-10-0-0----||

[2:43] 2nd lead part
|-------------------------------------|
|-------------------------------------|
|-------------------------------------|
|--------------------------9-10-12-14-|
|-7-8-10--7-8-5--7-8-10-12------------|
|-------------------------------------|
Never knew we were living in a world with a world that could be so sure
Never knew we were living in a world with a mind that could be so small
Never knew we were living in a world and the world is an open court
Maybe we don't want to live in a world, world who cares at all

[3:16] Chorus
      B    A B A B E F  C  D
||------------------------------|| x6
||------------------------------||
||-o--------------------5-----o-||
||-o--7-7--5-7-5-7-2-3--5--0--o-||
||----7-7--5-7-5-7-2-3--3--0----||
||----7-7--5-7-5-7-2-3-----0----||

[3:48] End
      B        C  D
||-----------|-----------|| x2
||-----------|-----------||
||-o---------|---------o-||
||-o--7-7----|-10-0-0--o-||
||----7-7----|-10-0-0----||
||----7-7----|-10-0-0----||
We'll make it up to you in the year 2000
Build it up for you in the year 2000
Make it hard for you in the year 2000
Build it up for you in the year 2000
Make it hard for you in the year 2000
Build it up for you in the year 2000 with you...


Comments