Silverchair - Stoned Chords & Tabs

 

Stoned Chords & Tabs

Silverchair Chords & Tabs

Version: 1 Type: Tab 0 ratings
1 star 2 stars 3 stars 4 stars 5 stars
comments

Stoned Tab

#----------------------------------PLEASE NOTE---------------------------------#
#This file is the author's own work and represents their interpretation of the #
#song. You may only use this file for private study, scholarship, or research. #
#------------------------------------------------------------------------------#
From: bed@melbpc.org.au (Andrew Bednarz)
Subject: TAB:  Stoned - silverchair
Date: Tue, 1 Aug 1995 08:06:18 UTC+10

---------------------------
 STONED  silverchair
---------------------------
transcribed by Andrew Bednarz
from the Tomorrow EP/Single

**NORMAL TUNING**

  INTRO
e:-------------------------------------------------------|
B:-------------------------------------------------------|
G:---------------------------------3---3-3-3----5--------|
D:-5---5-5-5----7---7-7-7-7-7-7----3---3-3-3----5--------|
A:-5---5-5-5----7---7-7-7-7-7-7----1---1-1-1----3--------|
E:-3---3-3-3----5---5-5-5-5-5-5--------------------------|
[ Tab from: http://www.guitartabs.cc/tabs/s/silverchair/stoned_tab.html ]
                
   VERSE
e:-3------1-------3---|
B:-3------1-------3---|
G:-4------3-------5---|
D:-5------3-------5---|
A:-5------1-------3---|
E:-3------------------|

    CHORUS
e:-----------------------------------------------------------|
B:-----------------------------------------------------------|
G:---------------------------------3---3-3-3-----------------|
D:-5---5-5-5----7---7-7-7-7-7-7----3---3-3-3----3---3-3-3-3--|
A:-5---5-5-5----7---7-7-7-7-7-7----1---1-1-1----3---3-3-3-3--|
E:-3---3-3-3----5---5-5-5-5-5-5-----------------1---1-1-1-1--|


e:-----------------------------------------------------------|
B:-----------------------------------------------------------|
G:---------------------------------3---3-3-3----5---5-5-5-5--|
D:-5---5-5-5----7---7-7-7-7-7-7----3---3-3-3----5---5-5-5-5--|
A:-5---5-5-5----7---7-7-7-7-7-7----1---1-1-1----3---3-3-3-3--|
E:-3---3-3-3----5---5-5-5-5-5-5------------------------------|

--== Bed ==--
---------------------
  bed@melbpc.org.au
---------------------
Comments