Silverchair - Steam Will Rise Chords & Tabs

 

Steam Will Rise Chords & Tabs

Silverchair Chords & Tabs

Version: 1 Type: Tab 0 ratings
1 star 2 stars 3 stars 4 stars 5 stars
comments

Steam Will Rise Tab

   
*STANDARD TUNING* E-B-G-D-A-E
Bass Lines Included 
------------------------ ----------------------
------------------------ ----------------------
-0-0--0-2-3-3--3-0------ ----------------------
------------------------ -1-1-1-1-1-1-1-1h3----

*Guitar* by the way this is 100% because im tabbing it right from my neon ballroom book.
[ Tab from: http://www.guitartabs.cc/tabs/s/silverchair/steam_will_rise_tab.html ]
E----------11-----------------------------
B-15-15-15---15---------------------------
G----------------12-12H14-----------------
D-----------------------------------------
A-----------------------------------------

E----------11-----------------------------
B-15-15-15---15---------------------------
G----------------12H14--------------------
D----------------------12-----------------
A-----------------------------------------
E-----------------------------------------
Comments