Silverchair - Steam Will Rise Chords & Tabs

 

Steam Will Rise Chords & Tabs

Silverchair Chords & Tabs

Version: 3 Type: Bass Tab 0 ratings
1 star 2 stars 3 stars 4 stars 5 stars
comments

Steam Will Rise Bass Tab

   
Hey folks, when I tried the bass tabs for this song the other person ahd posted here, it 
really wrong to me, so I figured it out myself. Here it is. questions comments 
blah blah blah email me at the_sacrament_@hotmail.com

STEAM WILL RISE
Tabbed by yoursweet666

Intro/Verse
G:--------------------------------------|
D:--------------------------------------|
A:--0-0-0-2-3-3-3-0---------------------|
E:------------------1-1-1-1-1-1-1-1/3---|

Contain yourself
I will compress
What I am too
[ Tab from: http://www.guitartabs.cc/tabs/s/silverchair/steam_will_rise_btab_ver_3.html ]
Replace yourself
With what you have
Your substitute

Bridge
G:---------------------|
D:---------------------|
A:---------------------|
E:-3-3-3-3-3-3-4-4-1-1-|

Only wanted a piece of myself...

Chorus
G:---------------------------------|
D:---------------------------------|
A:-----------------3-3-3-3-3-3-3-3-|
E:-0-0-0-0-3-3-3-3-----------------|

Steam will rise...
Esteem will rise...

Thats it, I think. If you have any corrections email them to me and I'd be glad to add them.
Comments