Silverchair - Spawn Again Chords & Tabs

 

Spawn Again Chords & Tabs

Silverchair Chords & Tabs

Version: 2 Type: Tab 0 ratings
1 star 2 stars 3 stars 4 stars 5 stars
comments

Spawn Again Tab

   
silverchair-Spawn Again
Kieran-foo_fighter42@hotmail.com
Band: silverchair
song: Spawn Again
Album: Neon Ballroom

tabbed by kieran (foo_fighter42@hotmail.com)
Dropped D tuning one half step down (from low to high:Db-Ab-Db-Gb-Bb-Eb),
written chords are relative to a "normal" Dropped-D


[0:03]
eb|---||------------------------------------------|| x4
Bb|---||------------------------------------------||
Gb|---||-o--------------------------------------o-||
Db|---||-o--------------------------------------o-||
Ab|---||----6-5--5h6p5-----5h6p5---5h6p5----------||
Db|-0-||---------------0-0-------0-------0-6-0----||

[0:18]
      D5         F#5   G5    G#5
||----------------------------------|| x4
||----------------------------------||
||-o----7-7-----------------------o-||
||-o----x-x--0-0-4-0-0-5-0-0-6-0--o-||
||------5-5--0-0-4-0-0-5-0-0-6-0----||
||----0------0-0-4-0-0-5-0-0-6-0----||

[0:32] Guitars out
Death becomes clearer through bloodshot eyes
As a death from old age becomes nearer
Why can't the livestock be free
When trading soldiers for steak

[0:40]
      D5         F#5   G5    G#5
||----------------------------------|| x2
||----------------------------------||
||-o----7-7-----------------------o-||
||-o----x-x--0-0-4-0-0-5-0-0-6-0--o-||
||------5-5--0-0-4-0-0-5-0-0-6-0----||
||----0------0-0-4-0-0-5-0-0-6-0----||
Learn to evolve with the new transition
To act upon a hypocritical vision

(then guitars out for 2 bars)
Discard the old and in with the new
Discard the old and in with the fashion

      D5         F#5   G5    G#5
||----------------------------------|| x4
||----------------------------------||
||-o----7-7-----------------------o-||
||-o----x-x--0-0-4-0-0-5-0-0-6-0--o-||
||------5-5--0-0-4-0-0-5-0-0-6-0----||
||----0------0-0-4-0-0-5-0-0-6-0----||
Learn to evolve with the new transition
To act upon a hypocritical vision
Learn to evolve, learn to, learn to evolve

[1:17]
|---------------------------------------------------|
|--s14-14-14-14-14-14-14-14-13-13-13-13-15-15-15-15-|
|---------------------------------------------------|
|---------------------------------------------------|
|---------------------------------------------------|
|---------------------------------------------------|
[ Tab from: http://www.guitartabs.cc/tabs/s/silverchair/spawn_again_tab_ver_2.html ]
      Db   D Db D Db  x12
||---------------------||---|
||---------------------||---|
||-o--6-6---7-6-7-6--o-||---|
||-o--6-6---7-6-7-6--o-||-0-|
||----4-4-4-5-4-5-4----||-0-|
||---------------------||-0-|
Who's the bad guy for iron require mince
These are the facts
So eat what you murder
This is animal liberation
Eight billion killed for human pleasure

[1:49]
  one guitar                        x2        two guitars           x2
|---||------------------------------||------------------------------||
|---||------------------------------||------------------------------||
|---||-o--------------------------o-||-o--------------------------o-||
|---||-o--------------------------o-||-o--------------------------o-||
|---||------------------------------||------------------------------||
|-3-||----0--0-0-4h5--0-1--0-3-0----||----0--0-0-4h5--0-1--0-3-0----||

[1:58]
     two guitars + vocals   x8
||--------------------------||
||--------------------------||
||-o----------------------o-||
||-o----------------------o-||
||--------------------------||
||----0--4h5--0-1--0-3-0----||
Bring on the ape farm
Demolish the monkeys
Drink up, drink up
Look down on junkies
A new hypocritical look and ambition
The time has come to make the decision you...

[2:14]
                            x16
||--------------------------||
||--------------------------||
||-o----------------------o-||
||-o----------------------o-||
||--------------------------||
||----0--4-5--0-1--0-3-0----||
(A third plays this 5th chords in tremolo picking with slides between:)
     D5 D#5 C5 D#5      D5 F5  G5  E5
||------------------||----------------|
||------------------||----------------|
||-o--7--9--5--8--o-||--7--10--12--9--|
||-o--x--x--x--x--o-||--x--x---x---x--|
||----5--6--3--6----||--5--8---10--7--|
||------------------||----------------|
Drink up, drink up, look down
I'll hold it back, I'll hold it back (...)
Discard the old, in with the fashion

(And this part ends with:)
   G D  D G F D  F
|-------------------|
|-------------------|
|-------------------|
|--5-0--0-5-3-0--1--|
|--5-0--0-5-3-0--1--|
|--5-0--0-5-3-0--1--|

        |--|
     (palm mutting)

[2:53] End
                   D5   F#5   G5    G#5
||-----------------------------------------|| x4
||-----------------------------------------||
||-o-------------------------------------o-||
||-o---------------0--0-4-0-0-5-0-0-6-0--o-||
||------6-5--5h6p5-0--0-4-0-0-5-0-0-6-0----||
||----0------------0--0-4-0-0-5-0-0-6-0----||

      D5         F#5   G5    G#5
||-----------------------------------|| x4
||-----------------------------------||
||-o----7-7------------------------o-||
||-o----x-x--0--0-4-0-0-5-0-0-6-0--o-||
||------5-5--0--0-4-0-0-5-0-0-6-0----||
||----0------0--0-4-0-0-5-0-0-6-0----||
Death becomes clearer through bloodshot eyes
Death becomes clearer through bloodshot eyes...


Comments