Silverchair - Spawn Again Chords & Tabs

 

Spawn Again Chords & Tabs

Silverchair Chords & Tabs

Version: 2 Type: Bass Tab 0 ratings
1 star 2 stars 3 stars 4 stars 5 stars
comments

Spawn Again Bass Tab

silverchair - "Spawn Again" (Bass Tab)
>From the album "Neon Ballroom"

Transcribed by Ben Schmerr

Notes:
------
1. The song is downtuned, with a drop D - all the strings except the "E" 
string are tuned
   down a half-step (one fret), and the E is tuned down 1 and a half steps.  
The "E" string
   is then C sharp, the "A" string is then A flat etc...
3. If you are not sure about any part of the song, the approximate timings 
shown below
   might help.
4. There are no guarantees that this tab is accurate - it is unofficial.  
However, I personally
   am very sure that this tab is 100% accurate.

Riff Order:
-----------
(Intro) Fill 1 x 1 (0:16)
Riff 1 x 16 (0:18)
Riff 2 x 15 (1:14)
Fill 2 x 1 (1:39)
Riff 3 x 24 (1:58)
Fill 3 x 1 (2:46)
Fill 4 x 4 (2:52)
(Intro) Fill 1 x 1 (3:05)
Riff 1 x 4 (3:07)
[ Tab from: http://www.guitartabs.cc/tabs/s/silverchair/spawn_again_btab_ver_2.html ]
(Intro) Fill 1:
|-----------------------|
|-----------------------|
|-----------------------|
|4---0-0---5---0-0---6-0|

Riff 1:
|-----------------------------------|
|---------Hammer--------------------|
|-----------On----------------------|
|0--0-0----0-4---0-0---5---0-0---6-0|

Riff 2:
|---------------------|
|---------------------|
|4--4------4--4------4|
|------0----------0---|

Fill 2:
|-----------------------------|
|-----------------------|
|4--4------4--4------4--|
|------0----------0-----0----0|

Riff 3:
|-----------------------------------------|
|-------------------|
|--------<--on-->-----<--on-->------|
|3---0---0-0---4------6-----0------1-----0|

Fill 3:
|----------------------------------------|
|---------------------|
|--------<--on-->------------|
|3---0---0-0---4------6-----0------1----1|

Fill 4:
|----|
|----|
|----|
|0--0|
Comments