Silverchair - Slave Chords & Tabs

 

Slave Chords & Tabs

Silverchair Chords & Tabs

Version: 6 Type: Tab 0 ratings
1 star 2 stars 3 stars 4 stars 5 stars
comments

Slave Tab

   
-------------------------------------------------------------------------------
			     Slave - Silverchair
-------------------------------------------------------------------------------

Tabbed by:Nathan Rhind
Email:

Tuning:Drop D
HAR=Harmonic
e|---------------------------------------------------------------------------|
B|---------------------------------------------------------------------------|
G|-7-----7--7--7----------6-----6--6--6----------7---------------------------|
D|-5-----5--5--5----------5-----5--5--5----------5---------------------------|
A|-5-----5--5--5----------5-----5--5--5----------5---------------------------|
E|-5-----5--5--5----------5-----5--5--5----------5-----5--5--5--5--5---------|

e|---------------------------------------------------------------------------|
B|---------------------------------------------------------------------------|
G|------------------------------------------------------------6--------------|
D|------------------------3-----------------------------------6--------------|
A|---0H3H5----0H3H5-------3------------0H3H5------0H3H5-------4--------------|
E|-0---------0----------0-3----------0----------0-----------0-4--------------|

e|---------------------------------------------------------------------------|
B|---------------------------------------------------------------------------|
G|---------------------------------------------------------------------------|
D|---------------------------3-------------------------------6---------------|
A|---------------------------3-------------------------------4---------------|
E|-0----------HAR7-0-HAR7-0--3-----0----------HAR7-0-HAR7-0--4---------------|

e|---------------------------------------------------------------------------|
B|---------------------------------------------------------------------------|
G|---------------------------------------------------------------------------|
D|---------------------------3-------------------------------6--6--6---------|
A|---------------------------3-------------------------------4--4--4---------|
E|-0----------HAR7-0-HAR7-0--3-----0----------HAR7-0-HAR7-0--4--4--4---------|
[ Tab from: http://www.guitartabs.cc/tabs/s/silverchair/slave_tab_ver_6.html ]
e|---------------------------------------------------------------------------|
B|---------------------------------------------------------------------------|
G|---------------------------------------------------------------------------|
D|---------------------------------------------------------------------------|
A|---------------------------------------------------------------------------|
E|-0----------HAR7-0-HAR7-0--------------------------------------------------|

e|---------------------------------------------------------------------------|
B|---------------------------------------------------------------------------|
G|-3-----3-3-3-3---3--3--3--3--3-----3-3-3-3---------------------------------|
D|-1-----1-1-1-1---1--1--1--1--1-----1-1-1-1-----6--6------------------------|
A|-1-----1-1-1-1---1--1--1--1--1-----1-1-1-1-----4--4------------------------|
E|-1-----1-1-1-1---1--1--1--1--1-----1-1-1-1-----4--4------------------------|

e|---------------------------------------------------------------------------|
B|---------------------------------------------------------------------------|
G|-3-----3-3-3-3---3--3--3--3--3-----3-3-3-3---------------------------------|
D|-1-----1-1-1-1---1--1--1--1--1-----1-1-1-1---------------------------------|
A|-1-----1-1-1-1---1--1--1--1--1-----1-1-1-1-----0------0------0-3-----------|
E|-1-----1-1-1-1---1--1--1--1--1-----1-1-1-1-----0------0------0-3-----------

e|---------------------------------------------------------------------------|
B|---------------------------------------------------------------------------|
G|---------------------------------------------------------------------------|
D|---------------------------------------------------------------------------|
A|--------3-5-5--------3-5-5-5-----------------------------------------------|
E|-0---00-------0---00-------------------------------------------------------|

e|---------------------------------------------------------------------------|
B|---------------------------------------------------------------------------|
G|---------------------------------------------------------------------------|
D|----------------------------------10---------------------------------------|
A|-10-9-0-10-9-0-10-9-0-10-9-0-10-0-8----------------------------------------
E|-10-9-0-10-9-0-10-9-0-10-9-0-10-0-8----------------------------------------|

e|---------------------------------------------------------------------------|
B|---------------------------------------------------------------------------|
G|---------------------------------------------------------------------------|
D|---------------------------------------------------------------------------|
A|-2-1-0-2-1-0-2-1-0-2-1-0-2-1-0---------------------------------------------|
E|-2-1-0-2-1-0-2-1-0-2-1-0-2-1-0---------------------------------------------|


| /  slide up
| \  slide down
| h  hammer-on
| p  pull-off
| ~  vibrato
| +  harmonic
| x  Mute note

===============================================================================
Comments