Silverchair - Slave Chords & Tabs

 

Slave Chords & Tabs

Silverchair Chords & Tabs

Version: 3 Type: Tab 0 ratings
1 star 2 stars 3 stars 4 stars 5 stars
comments

Slave Tab

   
Slave
Silverchair

Tuning = drop d

Intro
E|-4--4-4-4--4--4-4-4--4--4-4-4-4-4-1-------|
B|-7--7-7-7--6--6-6-6--7--7-7-7-7-7-4-------|
G|-6--6-6-6--5--5-5-5--6--6-6-6-6-6-3-------|
D|-4--4-4-4--4--4-4-4--4--4-4-4-4-4-1-------|
A|-4--4-4-4--4--4-4-4--4--4-4-4-4-4-1----1/-|
D|-4--4-4-4--4--4-4-4--4--4-4-4-4-4-1----1/-|

E|-----------------------------------------|
B|-----------------------------------------|
G|-----------------------------------------|
D|-------------------3-------------------3-|
A|-0-0h3h5---0h3h5---3-0-0h3h5---0h3h5---3-|
D|-0------0-------0--3-0------0-------0--3-|

E|-----------------------------------------|
B|-----------------------------------------|
G|-----------------------------------------|
D|-------------------3-------------------4-|
A|-0-0h3h5---0h3h5---3-0-0h3h5---0h3h5---4-|
D|-0------0-------0--3-0------0-------0--4-|


Guitar 1 
E|---------------------------------------------------------------------
B|---------------------------------------------------------------------
G|---------------------------------------------------------------------
D|-0-----------------0-3--0-----------------0-4--0-----------------0-3-
A|-0--------0--------0-3--0--------0--------0-4--0--------0--------0-3-
D|-0-<3.1>--0-<3.1>--0-3--0-<3.1>--0-<3.1>--0-4--0--<3.1>-0-<3.1>--0-3-

E|----------------------|-------|
B|----------------------|-------|
G|----------------------|-6-6-6-|
D|-0-----------------0--|-6-6-6-|
A|-0--------0--------0--|-4-4-4-|
D|-0-<3.1>--0-<3.1>--0--|-4-4-4-|             note: <3.1> are harmonics
                        PM - -|

E|---------------------------------------------------------------|
B|---------------------------------------------------------------|
G|----------------------------------------6----------------------|
D|-0---------------0-3--0---------------0-6--0---------------0-3-|
A|-0-------0-------0-3--0-------0-------0-4--0-------0-------0-3-|
D|-0-<3.1--0-<3.1--0-3--0-<3.1--0-<3.1--0-4--0-<3.1--0-<3.1--0-3-|

E|-------------------|
B|-------------------|
G|-------------------|
D|-0---------------0-|
A|-0-------0-------0-|
D|-0-<3.1--0--<3.1-0-|

  Guitar 2 
E|------10-------10------------10-------10------------10-------10------
B|---------------------------------------------------------------------
G|------7--------7-------------7--------7-------------7--------7-------
D|-0-----------------0-3--0-----------------0-4--0-----------------0-3-
A|-0--------0--------0-3--0--------0--------0-4--0--------0--------0-3-
D|-0--------0--------0-3--0--------0--------0-4--0--------0--------0-3-

E|------10-----10-----|-------|
B|--------------------|-------|
G|------7------7------|-6-6-6-|
D|-0---------------0--|-6-6-6-|
A|-0-------0-------0--|-4-4-4-|
D|-0-------0-------0--|-4-4-4-|
                        PM - -|

E|------10-----10------------10-----10------------10-----10------|
B|---------------------------------------------------------------|
G|------7------7-------------7------7-----6-------7------7-------|
D|-0---------------0-3--0---------------0-6--0---------------0-3-|
A|-0-------0-------0-3--0-------0-------0-4--0-------0-------0-3-|
D|-0-------0-------0-3--0-------0-------0-4--0-------0-------0-3-|

E|------10------10---|
B|-------------------|
G|------7-------7----|
D|-0---------------0-|
A|-0-------0-------0-|
D|-0-------0-------0-|
[ Tab from: http://www.guitartabs.cc/tabs/s/silverchair/slave_tab_ver_3.html ]
Verse "Lived too long..."            x2
E|-------------------------------------|
B|-------------------------------------|
G|---------------------------------6-6-|
D|-1--1-1-1--1-1-1-1--1-1--1-1-1-1-6-6-|
A|-1--1-1-1--1-1-1-1--1-1--1-1-1-1-4-4-|
D|-1--1-1-1--1-1-1-1--1-1--1-1-1-1-4-4-|

"Lived too long waiting to just drown..."
E|------------------------------------------------|
B|------------------------------------------------|
G|------------------------------------------------|
D|-0---0--0-3--0---0--0-3--0---0--0-3--0---0--0-3-|
A|-0---0--0-3--0---0--0-3--0---0--0-3--0---0--0-3-|
D|-0---0--0-3--0---0--0-3--0---0--0-3--0---0--0-3-|

E|------------------------------------------|
B|------------------------------------------|
G|------------------------------------------|
D|-0---0--0-3--0---0--0-3--0---0--0-3--0--0-|
A|-0---0--0-3--0---0--0-3--0---0--0-3--0--0-|
D|-0---0--0-3--0---0--0-3--0---0--0-3--0--0-|

Chorus   "Want to be your soldier..."                           x4
E|-----------------------------------------------------------------|
B|-----------------------------------------------------------------|
G|--------------------------------------------------------------10-|
D|-0-10h12-12-0-0-0-10h12-12-0-10p9-0-10p9-0-10p9-0-10p9-0-10p9-10-|
A|-0-10h12-12-0-0-0-10h12-12-0-10p9-0-10p9-0-10p9-0-10p9-0-10p9-8--|
D|-0-10h12-12-0-0-0-10h12-12-0-10p9-0-10p9-0-10p9-0-10p9-0-10p9-8--|

E|------------|
B|------------|
G|------------|
D|-1--1-1-1-1-|
A|-1--1-1-1-1-|
D|-1--1-1-1-1-|

Verse 2
E|------------------------------------------------|
B|------------------------------------------------|
G|------------------------------------------------|
D|-0---0--0-3--0---0--0-3--0---0--0-3--0---0--0-3-|
A|-0---0--0-3--0---0--0-3--0---0--0-3--0---0--0-3-|
D|-0---0--0-3--0---0--0-3--0---0--0-3--0---0--0-3-|

E|------------------------------------------------|
B|------------------------------------------------|
G|------------------------------------------------|
D|-0---0--0-3--0---0--0-3--0---0--0-3--0--0-0--3/-|
A|-0---0--0-3--0---0--0-3--0---0--0-3--0--0-0--3/-|
D|-0---0--0-3--0---0--0-3--0---0--0-3--0--0-0--3/-|

Daniel strums this chord during the interlude (xx0234)
Then let some feedback build and play (444xxx) before the chorus

Chorus (play normal chorus twice then play)
E|-------------------------------------|
B|-------------------------------------|
G|----------------------------------10-|
D|-10p9-0-10p9-0-10p9-0-10p9-0-10p9p10-|
A|-10p9-0-10p9-0-10p9-0-10p9-0-10p9p8--|
D|-10p9-0-10p9-0-10p9-0-10p9-0-10p9p8--|
GO!
                               X8
E|-------------------------------|
B|-------------------------------|
G|-------------------------------|
D|-2p1-0-2p1-0-2p1-0-2p1-0-2p1-1-|
A|-2p1-0-2p1-0-2p1-0-2p1-0-2p1-1-|
D|-2p1-0-2p1-0-2p1-0-2p1-0-2p1-1-|

                                     X4
E|-------------------------------------|
B|-------------------------------------|
G|----------------------------------10-|
D|-10p9-0-10p9-0-10p9-0-10p9-0-10p9p10-|
A|-10p9-0-10p9-0-10p9-0-10p9-0-10p9p8--|
D|-10p9-0-10p9-0-10p9-0-10p9-0-10p9p8--|

OUTRO (these are the chords played. Strumming pattern not included. Listen 
to the cd for strumming)
E|-11--14--13--15--|
B|-10--13--12--14--|
G|-8---11--10--12--|
D|-----------------|
A|-----------------|
D|-----------------|

E|----------------------------|
B|----------------------------|
G|----------------------------|
D|-1/--------------------3--0-|
A|-1/--0-0h3h5---0h3h5---3--0-|
D|-1/--0------0-------0--3--0-|

If you have any questions or comments, send to 
silverchair_surfing_bird@hotmail.com

________________________________________________________________________
Get Your Private, Free E-mail from MSN Hotmail at http://www.hotmail.com


 
Comments