Silverchair - Satin Sheets Chords & Tabs

 

Satin Sheets Chords & Tabs

Silverchair Chords & Tabs

Version: 1 Type: Tab 0 ratings
1 star 2 stars 3 stars 4 stars 5 stars
comments

Satin Sheets Tab

   
Song-Satin Sheets
Band-silverchair
Album-Neon Ballroom

Transcribed by dave lander
--------------------------------------------------

Tablature explanation

b   : bend
s   : slide
h   : hammer-on
p   : pull-off
x   : muffled string
P.M.: palm mute

Standard tuning

[0:00]
       F5  C#5 G#5 D#5
e||-----------------------|| x8
B||-----------------------||
G||-o------6-6-----8-8--o-||
D||-o--3-3-6-6-6-6-8-8--o-||
A||----3-3-4-4-6-6-6-6----||
E||----1-1-----4-4--------||

[0:16] guitars out

[0:28]
  F5      F5      F5      E5   F#5
|-------|-------|-------|-----------|
|-------|-------|-------|-----------|
|-------|-------|-------|-----------|
|-3-3---|-3-3---|-3-3---|-2-2--4-4--|
|-3-3---|-3-3---|-3-3---|-2-2--4-4--|
|-1-1---|-1-1---|-1-1---|-0-0--2-2--|
Just wait for us to say it
And we'll make you lie

  F5      F5      F5      F#5  E5
|-------|-------|-------|-----------|
|-------|-------|-------|-----------|
|-------|-------|-------|-----------|
|-3-3---|-3-3---|-3-3---|-4-4--2-2--|
|-3-3---|-3-3---|-3-3---|-4-4--2-2--|
|-1-1---|-1-1---|-1-1---|-2-2--0-0--|
And anyone who cares
Lies on satin sheets

[0:40]
  F5    D#5/G#  E5     F5    D#5/G#  E5
|-------------|-0----|-------------|----------------|
|-------------|-0----|-------------|----------------|
|-------6-6-6-|-x----|-------6-6-6-|----------------|
|-3-3-3-4-4-4-|-2----|-3-3-3-4-4-4-|-2-2--2--2-2--2-|
|-3-3-3-4-4-4-|-2----|-3-3-3-4-4-4-|-2-2--2--2-2--2-|
|-1-1-1-4-4-4-|-0----|-1-1-1-4-4-4-|-0-0--0--0-0--0-|
                                     * *     * *      *=PALM MUTE
  F5    D#5/G#  E5     F5    D#5/G#  E5
|-------------|-0----|-------------|----------------|----------------|
|-------------|-0----|-------------|----------------|----------------|
|-------6-6-6-|-x----|-------6-6-6-|----------------|----------------|
|-3-3-3-4-4-4-|-2----|-3-3-3-4-4-4-|-2-2--2--2-2--2-|-2-2--2--2-2--2-|
|-3-3-3-4-4-4-|-2----|-3-3-3-4-4-4-|-2-2--2--2-2--2-|-2-2--2--2-2--2-|
|-1-1-1-4-4-4-|-0----|-1-1-1-4-4-4-|-0-0--0--0-0--0-|-0-0--0--0-0--0-|
                                     * *     * *      * *     * *
And I waste my time on no-one
And you think I really care

[0:53]
      F5  C#5 G#5 D#5
||-----------------------|| x9
||-----------------------||
||-o------6-6-----8-8--o-||
||-o--3-3-6-6-6-6-8-8--o-||
||----3-3-4-4-6-6-6-6----||
||----1-1-----4-4--------||
[ Tab from: http://www.guitartabs.cc/tabs/s/silverchair/satin_sheets_tab.html ]
[1:06]
  F5      F5      F5      E5   F#5
|-------|-------|-------|-----------|
|-------|-------|-------|-----------|
|-------|-------|-------|-----------|
|-3-3---|-3-3---|-3-3---|-2-2--4-4--|
|-3-3---|-3-3---|-3-3---|-2-2--4-4--|
|-1-1---|-1-1---|-1-1---|-0-0--2-2--|
Wears a saturn bracelet
Lined with cocaine coins

  F5      F5      F5      F#5  E5
|-------|-------|-------|-----------|
|-------|-------|-------|-----------|
|-------|-------|-------|-----------|
|-3-3---|-3-3---|-3-3---|-4-4--2-2--|
|-3-3---|-3-3---|-3-3---|-4-4--2-2--|
|-1-1---|-1-1---|-1-1---|-2-2--0-0--|
"No chance" slipped away
Toddley training toys...

[1:18]
  F5    D#5/G#  E5     F5    D#5/G#  E5
|-------------|-0----|-------------|----------------|
|-------------|-0----|-------------|----------------|
|-------6-6-6-|-x----|-------6-6-6-|----------------|
|-3-3-3-4-4-4-|-2----|-3-3-3-4-4-4-|-2-2--2--2-2--2-|
|-3-3-3-4-4-4-|-2----|-3-3-3-4-4-4-|-2-2--2--2-2--2-|
|-1-1-1-4-4-4-|-0----|-1-1-1-4-4-4-|-0-0--0--0-0--0-|
                                     * *     * *      *=PALM MUTE
  F5    D#5/G#  E5     F5    D#5/G#      E5
|-------------|-0----|-------------||----------------------|| x4
|-------------|-0----|-------------||----------------------||
|-------6-6-6-|-x----|-------6-6-6-||-o------------------o-||
|-3-3-3-4-4-4-|-2----|-3-3-3-4-4-4-||-o--2-2--2--2-2--2--o-||
|-3-3-3-4-4-4-|-2----|-3-3-3-4-4-4-||----2-2--2--2-2--2----||
|-1-1-1-4-4-4-|-0----|-1-1-1-4-4-4-||----0-0--0--0-0--0----||
                                         * *     * *
And I waste my time on no-one
And you think I really care

[1:34]
      E5      x16 D5/E E5    x17
||-------------||-------------||
||-------------||-------------||
||-o--9-9-9--o-||-o---------o-||
||-o--x-x-x--o-||-o--0-2-2--o-||
||----7-7-7----||----0-2-2----||
||----0-0-0----||----0-0-0----||

[2:02]
  F5    D#5/G#  E5                   F5    D#5/G#  E5    x2
|-------------|----------------||----------------|-0-----||
|-------------|----------------||----------------|-0-----||
|-------6-6-6-|----------------||-o--------6-6-6-|-x---o-||
|-3-3-3-4-4-4-|-2-2--2--2-2--2-||-o--3-3-3-4-4-4-|-2---o-||
|-3-3-3-4-4-4-|-2-2--2--2-2--2-||----3-3-3-4-4-4-|-2-----||
|-1-1-1-4-4-4-|-0-0--0--0-0--0-||----1-1-1-4-4-4-|-0-----||
                * *     * *
And I waste my time on no-one
And you think I really care

[2:21]
E5 F5    E5 F5
|----------------|
|----------------|
|----------------|
|-2-3-3-3--2-3-3-|
|-2-3-3-3--2-3-3-|
|-0-1-1-1--0-1-1-|


Comments