Silverchair - Rain Chords & Tabs

 

Rain Chords & Tabs

Silverchair Chords & Tabs

Version: 1 Type: Tab 0 ratings
1 star 2 stars 3 stars 4 stars 5 stars
comments

Rain Tab

   
#----------------------------------PLEASE NOTE---------------------------------#
#This file is the author's own work and represents their interpretation of the #
#song. You may only use this file for private study, scholarship, or research. #
#------------------------------------------------------------------------------#


Artist: Daniel Johns & Paul Mac
Song: Rain
Album: I can't believe it's not Rock EP
Tabbed By: Simon Robson


Standard tuning 
Intro/Verse
Electric guitar (clean tone)
       C5              D#5               B#5
e||-------------------------------------------------------------------------|| x5
B||-------------------------------------------------------------------------||
G||-o--5-5-5-5-5-5-5-5--8-8-8-8-8-8-8-8---4-4-4-4-4-4-4-4-4-4-4-4-4-4-4-4-o-||
D||-o--5-5-5-5-5-5-5-5--8-8-8-8-8-8-8-8---4-4-4-4-4-4-4-4-4-4-4-4-4-4-4-4-o-||
A||----3-3-3-3-3-3-3-3--6-6-6-6-6-6-6-6---2-2-2-2-2-2-2-2-2-2-2-2-2-2-2-2---||
E||-------------------------------------------------------------------------||

Keyboard (Spooky Sound, works with flangered guitar, with vibrato)
       C5              D#5               B#5
e||-------------------------------------------------------------------------|| x5
B||-------------------------------------------------------------------------||
G||-o--12--------14-------------------------------------------------------o-||
D||-o------------------13---------15------9----------5--------------------o-||
A||-------------------------------------------------------------------------||
E||-------------------------------------------------------------------------||


[0:23] Chorus (Distorted Guitar)
      B5      F#5  G5       C5
||-------------------------------------|| x4
||-------------------------------------||
||-o--4-4-4-4---------------5-5-5-5--o-||
||-o--4-4-4-4-4-4--5-5-5-5--5-5-5-5--o-||
||----2-2-2-2-4-4--5-5-5-5--3-3-3-3----||
||------------2-2--3-3-3-3-------------|

[ Tab from: http://www.guitartabs.cc/tabs/s/silverchair/rain_tab.html ]
2nd Verse
Acoustic Guitar
       C5              D#5               B#5
e||-------------------------------------------------------------------------|| x5
B||-------------------------------------------------------------------------||
G||-o--5-5-5-5-5-5-5-5--8-8-8-8-8-8-8-8---4-4-4-4-4-4-4-4-4-4-4-4-4-4-4-4-o-||
D||-o--5-5-5-5-5-5-5-5--8-8-8-8-8-8-8-8---4-4-4-4-4-4-4-4-4-4-4-4-4-4-4-4-o-||
A||----3-3-3-3-3-3-3-3--6-6-6-6-6-6-6-6---2-2-2-2-2-2-2-2-2-2-2-2-2-2-2-2---||
E||-------------------------------------------------------------------------||

Keyboard (Spooky Sound, works with flangered guitar, with vibrato)
       C5              D#5               B#5
e||-------------------------------------------------------------------------|| x5
B||-------------------------------------------------------------------------||
G||-o--12--------14-------------------------------------------------------o-||
D||-o------------------13---------15------9----------5--------------------o-||
A||-------------------------------------------------------------------------||
E||-------------------------------------------------------------------------||

      B5                        C5  D#5
e||-------------------------------------||x8
B||-----0---------------0---------------||
G||---4-4---4-4---4---4-4---4---5---8-o-|| 
D||---4-4---4-4---4---4-4---4---5---8-o-|| 
A||---2-2---2-2---2---2-2---2---3---6---||
E||-------------------------------------||
       C5              D#5               B#5
e||-------------------------------------------------------------------------|| x6
B||-------------------------------------------------------------------------||
G||-o--5-5-5-5-5-5-5-5--8-8-8-8-8-8-8-8---4-4-4-4-4-4-4-4-4-4-4-3-3-3-3-3-o-||
D||-o--5-5-5-5-5-5-5-5--8-8-8-8-8-8-8-8---4-4-4-4-4-4-4-4-4-4-4-3-3-3-3-3-o-||
A||----3-3-3-3-3-3-3-3--6-6-6-6-6-6-6-6---2-2-2-2-2-2-2-2-2-2-1-1-1-1-1-1---||
E||-------------------------------------------------------------------------||

Comments