Silverchair - Pure Massacre Chords & Tabs

 

Pure Massacre Chords & Tabs

Silverchair Chords & Tabs

Version: 8 Type: Tab 0 ratings
1 star 2 stars 3 stars 4 stars 5 stars
comments

Pure Massacre Tab

   
#----------------------------------PLEASE NOTE---------------------------------#
#This file is the author's own work and represents their interpretation of the #
#song. You may only use this file for private study, scholarship, or research. #
#------------------------------------------------------------------------------##

                                  PURE MASSACRE
                           As recorded by Silverchiar
                        (From the 1995 Album FROGSTOMP)

Words by Daniel Johns, Chris Joannou and Ben Gillies



Gtr I (D A D G B E) - 'clean'
Gtr II (D A D G B E) - 'dist.'
Gtr III (D A D G B E) - 'dist.'

 Intro
  Moderately Slow Rock Q=88
 4/4
  Gtr I
  H.      E S S   E. S +E  E. E. E S S
|---------------|----------------------|
|---------------|----------------------|
|-------------0-|-2--2-(2)-2--1--1-0-0-|
|-----------0---|-0--0-(0)-0--0--0-0-0-|
|---------------|----------------------|
|---------------|----------------------|


  E. S +E  S +E  E. E S S   S  E  S +E  E. E. E S S
|-------------------------|---------------------------|
|-------------------------|---------------------------|
|-2--2-(2)-2-(2)S5--5---0-|-0h=2--2-(2)-2--1--1-0-0---|
|-0--0-(0)-0-(0)-0--0-0---|-0-(0)-0-(0)-0--0--0-0-0---|
|-------------------------|---------------------------|
|-------------------------|---------------------------|


                            1st Verse
  E. S +E  S +E  E. E S S    E. S +E  E. E. E S S   E. S +E  S +E  E. E S S
|-------------------------||----------------------|--------------------------|
|-------------------------||----------------------|--------------------------|
|-2--2-(2)-2-(2)S5--5---0-||-2--2-(2)-2--1--1-0-0-|-2--2-(2)-2-(2)S5--5---0--|
|-0--0-(0)-0-(0)-0--0-0---||-0--0-(0)-0--0--0-0-0-|-0--0-(0)-0-(0)-0--0-0----|
|-------------------------||----------------------|--------------------------|
|-------------------------||----------------------|--------------------------|


  S  E  S +E  E. E. E S S   S  E  S +E  S +E  E. E S S
|-------------------------|----------------------------|
|-------------------------|----------------------------|
|-0h=2--2-(2)-2--1--1-0-0-|-0h=2--2-(2)-2-(2)S5--5---0-|
|-0-(0)-0-(0)-0--0--0-0-0-|-0-(0)-0-(0)-0-(0)-0--0-0---|
|-------------------------|----------------------------|
|-------------------------|----------------------------|


  S  E  S +E  E. E. E S S   S  E  S +E  S +E  E. E S S
|-------------------------|----------------------------|
|-------------------------|----------------------------|
|-0h=2--2-(2)-2--1--1-0-0-|-0h=2--2-(2)-2-(2)S5--5---0-|
|-0-(0)-0-(0)-0--0--0-0-0-|-0-(0)-0-(0)-0-(0)-0--0-0---|
|-------------------------|----------------------------|
|-------------------------|----------------------------|


  S  E  S +E  E. E. E S S   E. S +E  S +E  E. E S S
|-------------------------|-------------------------|
|-------------------------|-------------------------|
|-0h=2--2-(2)-2--1--1-0-0-|-2--2-(2)-2-(2)S5--5---0-|
|-0-(0)-0-(0)-0--0--0-0-0-|-0--0-(0)-0-(0)-0--0-0---|
|-------------------------|-------------------------|
|-------------------------|-------------------------|


  S  E  S +E  E. E. E S S   E. S +E  S +E  E. E E
|-------------------------|------------------------||
|-------------------------|------------------------||
|-0h=2--2-(2)-2--1--1-0-0-|-2--2-(2)-2-(2)S5--5----||
|-0-(0)-0-(0)-0--0--0-0-0-|-0--0-(0)-0-(0)-0--0----||
|-------------------------|------------------------||
|-------------------------|------------------------||


  D5 F5    D5 F5     D5C5    D5 F5    D5     F5     G5A5
  Gtr II
                     PM
  E. S +E  E. S  +E  E E     E. S +E  E.     S  +E  E E
|--------------------------|------------------------------|
|--------------------------|------------------------------|
|----------------------5---|------------------------------|
|-0--3-(3)-0--3--(3)-0-5---|-0--3-(3)-0------3--(3)-5-7---|
|-0--3-(3)-0--3--(3)-0-3---|-0--3-(3)-0------3--(3)-5-7---|
|-0--3-(3)-0--3--(3)-0-----|-0--3-(3)-0------3--(3)-5-7---|
|
| Gtr III
| E. S +E  E. E.     E S S   E. S +E  S  +E  E.     E S S
|--------------------------|------------------------------|
|--------------------------|------------------------------|
|-2--2-(2)-2--1------1-0-0-|-2--2-(2)-2--(2)S5------5---0-|
|-0--0-(0)-0--0------0-0-0-|-0--0-(0)-0--(0)-0------0-0---|
|--------------------------|------------------------------|
|--------------------------|------------------------------|


  D5    F5    D5 F5     D5C5    D5 F5    D5     F5     C5A5
                        PM
  E.    S +E  E. S  +E  E E     E. S +E  E.     S  +E  E E
|-----------------------------|----------------------------||
|-----------------------------|----------------------------||
|-------------------------5---|----------------------------||
|-0-----3-(3)-0--3--(3)-0-5---|-0--3-(3)-0------3--(3)-5-7-||
|-0-----3-(3)-0--3--(3)-0-3---|-0--3-(3)-0------3--(3)-5-7-||
|-0-----3-(3)-0--3--(3)-0-----|-0--3-(3)-0------3--(3)-5-7-||
|
| S  E  S +E  E. E.     E S S   E. S +E  S  +E  E.     Q
|-----------------------------|----------------------------||
|-----------------------------|----------------------------||
|-0h=2--2-(2)-2--1------1-0-0-|-2--2-(2)-2--(2)S5------5---||
|-0-(0)-0-(0)-0--0------0-0-0-|-0--0-(0)-0--(0)-0------0---||
|-----------------------------|----------------------------||
|-----------------------------|----------------------------||


  Gtr III
  E. S +E  E. E. E S S   E. S +E  S +E  E. E S S
|----------------------|-------------------------|
|----------------------|-------------------------|
|-2--2-(2)-2--1--1-0-0-|-2--2-(2)-2-(2)S5--5---0-|
|-0--0-(0)-0--0--0-0-0-|-0--0-(0)-0-(0)-0--0-0---|
|----------------------|-------------------------|
|----------------------|-------------------------|


  S  E  S +E  E. E. E S S   E. S +E  S +E  E. E S S
|-------------------------|--------------------------|
|-------------------------|--------------------------|
|-0h=2--2-(2)-2--1--1-0-0-|-2--2-(2)-2-(2)S5--5-0-0--|
|-0-(0)-0-(0)-0--0--0-0-0-|-0--0-(0)-0-(0)-0--0-0-0--|
|-------------------------|--------------------------|
|-------------------------|--------------------------|


  D5    F5    D5 F5     D5C5    D5 F5    D5     F5     G5A5
  Gtr II
                        PM
  E.    S +E  E. S  +E  E E     E. S +E  E.     S  +E  E E
|-----------------------------|------------------------------|
|-----------------------------|------------------------------|
|-------------------------5---|------------------------------|
|-0-----3-(3)-0--3--(3)-0-5---|-0--3-(3)-0------3--(3)-5-7---|
|-0-----3-(3)-0--3--(3)-0-3---|-0--3-(3)-0------3--(3)-5-7---|
|-0-----3-(3)-0--3--(3)-0-----|-0--3-(3)-0------3--(3)-5-7---|
|
| Gtr III
| S  E  S +E  E. E.     E S S   E. S +E  S  +E  E.     E S S
|-----------------------------|------------------------------|
|-----------------------------|------------------------------|
|-0h=2--2-(2)-2--1------1-0-0-|-2--2-(2)-2--(2)S5------5---0-|
|-0-(0)-0-(0)-0--0------0-0-0-|-0--0-(0)-0--(0)-0------0-0---|
|-----------------------------|------------------------------|
|-----------------------------|------------------------------|


  D5    F5    D5 F5     D5      D5 F5    D5     F5     G5  A5
                        PM
  E.    S +E  E. S  +E  E E     E. S +E  E.     S  +E  E    E
|-----------------------------|---------------------------------||
|-----------------------------|---------------------------------||
|-------------------------5---|---------------------------------||
|-0-----3-(3)-0--3--(3)-0-5---|-0--3-(3)-0------3--(3)-5----7---||
|-0-----3-(3)-0--3--(3)-0-3---|-0--3-(3)-0------3--(3)-5----7---||
|-0-----3-(3)-0--3--(3)-0-----|-0--3-(3)-0------3--(3)-5----7---||
|
| S  E  S +E  E. E.     E S S   E. S +E  S  +E  E.     S S  E
|-----------------------------|---------------------------------||
|-----------------------------|---------------------------------||
|-0h=2--2-(2)-2--1------1-0-0-|-2--2-(2)-2--(2)S5------5-x-(0)--||
|-0-(0)-0-(0)-0--0------0-0-0-|-0--0-(0)-0--(0)-0------0--------||
|-----------------------------|---------------------------------||
|-----------------------------|---------------------------------||


 Chorus
  $
  G5       F5     G5F5      G5       Bb5
  Gtr II
  E. S S S E +Q   S S S S   E. S S S E +Q   q
|-------------------------|---------------------|
|-------------------------|---------------------|
|-------------------------|---------------------|
|-5--5-x-x-3-(3)------x-x-|-5--5-x-x-8-(8)------|
|-5--5-x-x-3-(3)--5p3-x-x-|-5--5-x-x-8-(8)--8\--|
|-5--5-x-x-3-(3)--5p3-0-x-|-5--5-x-x-8-(8)--8\--|
|
| Gtr III
| E. S S S E +Q   S S S S   E. S S S E +Q   q
|-------------------------|---------------------|
|-------------------------|---------------------|
|-------------------------|---------------------|
|-5--5-x-x-3-(3)------x-x-|-5--5-x-x-8-(8)------|
|-5--5-x-x-3-(3)--5p3-x-x-|-5--5-x-x-8-(8)--8\--|
|-5--5-x-x-3-(3)--5p3-x-x-|-5--5-x-x-8-(8)--8\--|


  D5
  W                      +H.                +E  S S
|----------------------|-----------------------------|
|----------------------|-----------------------------|
|----------------------|-----------------------------|
|-0--------------------|-(0)----------------(0)-x-x--|
|-0--------------------|-(0)----------------(0)-x-x--|
|-0--------------------|-(0)----------------(0)-x-x--|
|
| E. S +E  E. E. E S S    E. S +E  S +E  E.  E  S S
|----------------------|-----------------------------|
|----------------------|-----------------------------|
|-2--2-(2)-2--1--1-0-0-|--2--2-(2)-2-(2)S5---5-------|
|-0--0-(0)-0--0--0-0-0-|--0--0-(0)-0-(0)-0---0--x-x--|
|----------------------|------------------------x-x--|
|----------------------|------------------------x-x--|


                                          To Coda
  G5       F5     G5F5      G5       Bb5
  E. S S S E +Q   S S S S   E. S S S E +Q.     S S
|-------------------------|------------------------|
|-------------------------|------------------------|
|-------------------------|------------------------|
|-5--5-x-x-3-(3)------x-x-|-5--5-x-x-8-(8)-----x-x-|
|-5--5-x-x-3-(3)--5p3-x-x-|-5--5-x-x-8-(8)-----x-x-|
|-5--5-x-x-3-(3)--5p3-x-x-|-5--5-x-x-8-(8)-----x-x-|
|
| E. S S S E +Q   S S S S   E. S S S E +Q   q
|-------------------------|------------------------|
|-------------------------|------------------------|
|-------------------------|------------------------|
|-5--5-x-x-3-(3)------x-x-|-5--5-x-x-8-(8)---------|
|-5--5-x-x-3-(3)--5p3-x-x-|-5--5-x-x-8-(8)---------|
|-5--5-x-x-3-(3)--5p3-x-x-|-5--5-x-x-8-(8)--8\-----|


  D5
  W                      +W
|----------------------|--------------------------|
|----------------------|--------------------------|
|----------------------|--------------------------|
|-0--------------------|-(0)----------------------|
|-0--------------------|-(0)----------------------|
|-0--------------------|-(0)----------------------|
|
| E. S +E  E. E. E S S    E. S +E  S +E  E. E S S
|----------------------|--------------------------|
|----------------------|--------------------------|
|-2--2-(2)-2--1--1-0-0-|--2--2-(2)-2-(2)S5--5-0-0-|
|-0--0-(0)-0--0--0-0-0-|--0--0-(0)-0-(0)-0--0-0-0-|
|----------------------|--------------------------|
|----------------------|--------------------------|


  Gtr III
  S  E  S +E  E. E. E S S   E. S +E  S +E  E. E S S
|-------------------------|-------------------------|
|-------------------------|-------------------------|
|-0h=2--2-(2)-2--1--1-0-0-|-2--2-(2)-2-(2)S5--5---0-|
|-0-(0)-0-(0)-0--0--0-0-0-|-0--0-(0)-0-(0)-0--0-0---|
|-------------------------|-------------------------|
|-------------------------|-------------------------|


   2nd Verse
    S  E  S +E  E. E. E S S   E. S +E  S +E  E. E S S
||--------------------------|--------------------------||
||o-------------------------|-------------------------o||
||--0h=2--2-(2)-2--1--1-0-0-|-2--2-(2)-2-(2)S5--5-0-0--||
||--0-(0)-0-(0)-0--0--0-0-0-|-0--0-(0)-0-(0)-0--0-0-0--||
||o-------------------------|-------------------------o||
||--------------------------|--------------------------||


  D5    F5    D5 F5     D5C5    D5 F5    D5     F5     G5A5
  Gtr II
                        PM
  E.    S +E  E. S  +E  E E     E. S +E  E.     S  +E  E E
|-----------------------------|------------------------------|
|-----------------------------|------------------------------|
|-------------------------5---|------------------------------|
|-0-----3-(3)-0--3--(3)-0-5---|-0--3-(3)-0------3--(3)-5-7---|
|-0-----3-(3)-0--3--(3)-0-3---|-0--3-(3)-0------3--(3)-5-7---|
|-0-----3-(3)-0--3--(3)-0-----|-0--3-(3)-0------3--(3)-5-7---|
|
| Gtr III
| S  E  S +E  E. E.     E S S   E. S +E  S  +E  E.     E S S
|-----------------------------|------------------------------|
|-----------------------------|------------------------------|
|-0h=2--2-(2)-2--1------1-0-0-|-2--2-(2)-2--(2)S5------5-0-0-|
|-0-(0)-0-(0)-0--0------0-0-0-|-0--0-(0)-0--(0)-0------0-0-0-|
|-----------------------------|------------------------------|
|-----------------------------|------------------------------|


                                               D.S. al Coda
  D5    F5    D5 F5     D5C5    D5 F5    D5     F5     G5A5
                        PM
  E.    S +E  E. S  +E  E E     E. S +E  E.     S  +E  E E
|-----------------------------|-------------------------------||
|-----------------------------|-------------------------------||
|-------------------------5---|-------------------------------||
|-0-----3-(3)-0--3--(3)-0-5---|-0--3-(3)-0------3--(3)-5-7----||
|-0-----3-(3)-0--3--(3)-0-3---|-0--3-(3)-0------3--(3)-5-7----||
|-0-----3-(3)-0--3--(3)-0-----|-0--3-(3)-0------3--(3)-5-7----||
|
| S  E  S +E  E. E.     E S S   E. S +E  S  +E  E.     E S S
|-----------------------------|-------------------------------||
|-----------------------------|-------------------------------||
|-0h=2--2-(2)-2--1------1-0-0-|-2--2-(2)-2--(2)S5------5-0-0--||
|-0-(0)-0-(0)-0--0------0-0-0-|-0--0-(0)-0--(0)-0------0-0-0--||
|-----------------------------|-------------------------------||
|-----------------------------|-------------------------------||

[ Tab from: http://www.guitartabs.cc/tabs/s/silverchair/pure_massacre_tab_ver_8.html ]
  &
  D5
  Gtr II
  W                      +W
|----------------------|--------------------------|
|----------------------|--------------------------|
|----------------------|--------------------------|
|-0--------------------|-(0)----------------------|
|-0--------------------|-(0)----------------------|
|-0--------------------|-(0)----------------------|
|
| Gtr III
| E. S +E  E. E. E S S    E. S +E  S +E  E. E S S
|----------------------|--------------------------|
|----------------------|--------------------------|
|-2--2-(2)-2--1--1-0-0-|--2--2-(2)-2-(2)S5--5-0-0-|
|-0--0-(0)-0--0--0-0-0-|--0--0-(0)-0-(0)-0--0-0-0-|
|----------------------|--------------------------|
|----------------------|--------------------------|


  +W                         +H.                +E  S S
|--------------------------|-----------------------------||
|--------------------------|-----------------------------||
|--------------------------|------------------------x-x--||
|-(0)----------------------|-(0)----------------(0)-x-x--||
|-(0)----------------------|-(0)----------------(0)-x-x--||
|-(0)----------------------|-(0)----------------(0)------||
|
|  S  E  S +E  E. E. E S S    E. S +E  S +E  E.  E  S S
|--------------------------|-----------------------------||
|--------------------------|-----------------------------||
|--0h=2--2-(2)-2--1--1-0-0-|--2--2-(2)-2-(2)S5---5--x-x--||
|--0-(0)-0-(0)-0--0--0-0-0-|--0--0-(0)-0-(0)-0---0--x-x--||
|--------------------------|------------------------x-x--||
|--------------------------|-----------------------------||


   Bridge
    D        Bb5
    E. S S S S +Q   +S  E S S
||----------------------------|
||o-7--7----------------------|
||--7--7-x-xS3-(3)--(3)-3-x-x-|
||--7--7-x-xS3-(3)--(3)-3-x-x-|
||o-5--5-x-xS1-(1)--(1)-1-x-x-|
||----------------------------|


  C5       G5                    D        Bb5          C5
  E. S S S S +E  S S S E S S  3x E. S S S S +Q   +S  E E
|-----------------------------||--------------------------|
|----------------------------o||-7--7---------------------|
|-5--5-x-x--------------------||-7--7-x-xS3-(3)--(3)-3s5--|
|-5--5-x-x-5-(5)-x-x-x-5-x-x--||-7--7-x-xS3-(3)--(3)-3s5--|
|-3--3-x-x-5-(5)-x-x-x-5-x-x-o||-5--5-x-xS1-(1)--(1)-1s3--|
|----------5-(5)-x-x-x-5-x-x--||--------------------------|


  C5
    PM--------------------|
  E E E E E E E E   E E E E E E E E
|-----------------|-----------------|
|-----------------|-----------------|
|-5---------------|-5-5-5-5-5-5-5-5-|
|-5-5-5-5-5-5-5-5-|-5-5-5-5-5-5-5-5-|
|-3-3-3-3-3-3-3-3-|-3-3-3-3-3-3-3-3-|
|-----------------|-----------------|
|
| Gtr III
| W                 W
|-----------------|-----------------|
|-----------------|-----------------|
|-----------------|-----------------|
|-----------------|-----------------|
|-----------------|-----------------|
|-----------------|-----------------|


    D5 F5    D5 F5     D5C5    D5 F5    D5     F5     G5A5
                       PM
    E. S +E  E. S  +E  E E     E. S +E  E.     S  +E  E E
||---------------------------|--------------------------------||
||o--------------------------|-------------------------------o||
||-----------------------5---|--------------------------------||
||--0--3-(3)-0--3--(3)-0-5---|-0--3-(3)-0------3--(3)-5-7-----||
||o-0--3-(3)-0--3--(3)-0-3---|-0--3-(3)-0------3--(3)-5-7----o||
||--0--3-(3)-0--3--(3)-0-----|-0--3-(3)-0------3--(3)-5-7-----||
|
|   E. S +E  E. E.     E S S   E. S +E  S  +E  E.     E S S
||---------------------------|--------------------------------||
||o--------------------------|-------------------------------o||
||--2--2-(2)-2--1------1-0-0-|-2--2-(2)-2--(2)S5------5-0-0---||
||--0--0-(0)-0--0------0-0-0-|-0--0-(0)-0--(0)-0------0-0-0---||
||o--------------------------|-------------------------------o||
||---------------------------|--------------------------------||


  D5
                          >
  W                      +W
|----------------------|--------------------------|
|----------------------|--------------------------|
|----------------------|--------------------------|
|-0--------------------|-(0)----------------------|
|-0--------------------|-(0)----------------------|
|-0--------------------|-(0)----------------------|
|
| Gtr I
|                         <
| E. S +E  E. E. E S S    E. S +E  S +E  E. E S S
|----------------------|--------------------------|
|----------------------|--------------------------|
|-2--2-(2)-2--1--1-0-0-|--2--2-(2)-2-(2)S5--5-0-0-|
|-0--0-(0)-0--0--0-0-0-|--0--0-(0)-0-(0)-0--0-0-0-|
|----------------------|--------------------------|
|----------------------|--------------------------|


                                                     PM
  +W                         +H.                E.   S
|--------------------------|----------------------------|
|--------------------------|----------------------------|
|--------------------------|----------------------------|
|-(0)----------------------|-(0)------------------------|
|-(0)----------------------|-(0)---------------------0--|
|-(0)----------------------|-(0)---------------------0--|
|
|  S  E  S +E  E. E. E S S    E. S +E  S +E  E. E  S S
|--------------------------|----------------------------|
|--------------------------|----------------------------|
|--0h=2--2-(2)-2--1--1-0-0-|--2--2-(2)-2-(2)S5--5--0-0--|
|--0-(0)-0-(0)-0--0--0-0-0-|--0--0-(0)-0-(0)-0--0--0-0--|
|--------------------------|----------------------------|
|--------------------------|----------------------------|


  PM
  E  E    H.               W
|------------------------|-------------------------|
|------------------------|-------------------------|
|------------------------|-------------------------|
|------------------------|-------------------------|
|-0----------------------|-------------------------|
|-0----------------------|-------------------------|
|
| E.   S +E  E. E. E S S   E. S +E  S +E  E. E S S
|------------------------|-------------------------|
|------------------------|-------------------------|
|-2----2-(2)-2--1--1-0-0-|-2--2-(2)-2-(2)S5--5-0-0-|
|-0----0-(0)-0--0--0-0-0-|-0--0-(0)-0-(0)-0--0-0-0-|
|------------------------|-------------------------|
|------------------------|-------------------------|


  W                         W
|-------------------------|-------------------------|
|-------------------------|-------------------------|
|-------------------------|-------------------------|
|-------------------------|-------------------------|
|-------------------------|-------------------------|
|-------------------------|-------------------------|
|
| S  E  S +E  E. E. E S S   E. S +E  S +E  E. E S S
|-------------------------|-------------------------|
|-------------------------|-------------------------|
|-0h=2--2-(2)-2--1--1-0-0-|-2--2-(2)-2-(2)S5--5-0-0-|
|-0-(0)-0-(0)-0--0--0-0-0-|-0--0-(0)-0-(0)-0--0-0-0-|
|-------------------------|-------------------------|
|-------------------------|-------------------------|


  W                         W
|-------------------------|-------------------------|
|-------------------------|-------------------------|
|-------------------------|-------------------------|
|-------------------------|-------------------------|
|-------------------------|-------------------------|
|-------------------------|-------------------------|
|
| S  E  S +E  E. E. E S S   E. S +E  S +E  E. E S S
|-------------------------|-------------------------|
|-------------------------|-------------------------|
|-0h=2--2-(2)-2--1--1-0-0-|-2--2-(2)-2-(2)S5--5-0-0-|
|-0-(0)-0-(0)-0--0--0-0-0-|-0--0-(0)-0-(0)-0--0-0-0-|
|-------------------------|-------------------------|
|-------------------------|-------------------------|


  W                         H.                E S S
|-------------------------|-------------------------||
|-------------------------|-------------------------||
|-------------------------|-------------------------||
|-------------------------|---------------------x-x-||
|-------------------------|---------------------x-x-||
|-------------------------|---------------------x-x-||
|
|                                               Gtr III
| S  E  S +E  E. E. E S S   E. S +E  S +E  E. E S S
|-------------------------|-------------------------||
|-------------------------|-------------------------||
|-0h=2--2-(2)-2--1--1-0-0-|-2--2-(2)-2-(2)S5--5-----||
|-0-(0)-0-(0)-0--0--0-0-0-|-0--0-(0)-0-(0)-0--0-x-x-||
|-------------------------|---------------------x-x-||
|-------------------------|---------------------x-x-||


 Chorus
  G5       F5     G5F5      G5       Bb5
  E. S S S E +Q   S S S S   E. S S S E +Q   q
|-------------------------|--------------------|
|-------------------------|--------------------|
|-------------------------|--------------------|
|-5--5-x-x-3-(3)------x-x-|-5--5-x-x-8-(8)-----|
|-5--5-x-x-3-(3)--5p3-x-x-|-5--5-x-x-8-(8)--8--|
|-5--5-x-x-3-(3)--5p3-0-x-|-5--5-x-x-8-(8)--8--|
|
| E. S S S E +Q   S S S S   E. S S S E +Q   q
|-------------------------|--------------------|
|-------------------------|--------------------|
|-------------------------|--------------------|
|-5--5-x-x-3-(3)------x-x-|-5--5-x-x-8-(8)-----|
|-5--5-x-x-3-(3)--5p3-x-x-|-5--5-x-x-8-(8)--8--|
|-5--5-x-x-3-(3)--5p3-x-x-|-5--5-x-x-8-(8)--8--|


  D5
  W                      +H.                +E  S S
|----------------------|-----------------------------|
|----------------------|-----------------------------|
|----------------------|-----------------------------|
|-0--------------------|-(0)----------------(0)-x-x--|
|-0--------------------|-(0)----------------(0)-x-x--|
|-0--------------------|-(0)----------------(0)-x-x--|
|
| Gtrs I, III                                   Gtr III
| E. S +E  E. E. E S S    E. S +E  S +E  E.  E  S S
|----------------------|-----------------------------|
|----------------------|-----------------------------|
|-2--2-(2)-2--1--1-0-0-|--2--2-(2)-2-(2)S5---5-------|
|-0--0-(0)-0--0--0-0-0-|--0--0-(0)-0-(0)-0---0--x-x--|
|----------------------|------------------------x-x--|
|----------------------|------------------------x-x--|


  G5       F5     G5F5      G5       Bb5       D5
  E. S S S E +Q   S S S S   E. S S S E +Q   E  E
|-------------------------|----------------------|
|-------------------------|----------------------|
|-------------------------|----------------------|
|-5--5-x-x-3-(3)------x-x-|-5--5-x-x-8-(8)-------|
|-5--5-x-x-3-(3)--5p3-x-x-|-5--5-x-x-8-(8)--8--0-|
|-5--5-x-x-3-(3)--5p3-x-x-|-5--5-x-x-8-(8)--8--0-|
|
| E. S S S E +Q   S S S S   E. S S S E +Q   q
|-------------------------|----------------------|
|-------------------------|----------------------|
|-------------------------|----------------------|
|-5--5-x-x-3-(3)------x-x-|-5--5-x-x-8-(8)-------|
|-5--5-x-x-3-(3)--5p3-x-x-|-5--5-x-x-8-(8)--8\---|
|-5--5-x-x-3-(3)--5p3-x-x-|-5--5-x-x-8-(8)--8\---|


  W                      H.                  E  S S
|----------------------|-----------------------------|
|----------------------|-----------------------------|
|----------------------|-----------------------------|
|----------------------|------------------------x-x--|
|----------------------|------------------------x-x--|
|----------------------|-------------------/12\-x-x--|
|
| Gtrs I, III                                   Gtr III
| E. S +E  E. E. E S S   E. S +E  S +E  E.   E  S S
|----------------------|-----------------------------|
|----------------------|-----------------------------|
|-2--2-(2)-2--1--1-0-0-|-2--2-(2)-2-(2)S5----5-------|
|-0--0-(0)-0--0--0-0-0-|-0--0-(0)-0-(0)-0----0--x-x--|
|----------------------|------------------------x-x--|
|----------------------|------------------------x-x--|


  G5       F5     G5F5      G5       Bb5        C5
  E. S S S E +Q   S S S S   E. S S S E. S S S S  S  e
|-------------------------|---------------------------|
|-------------------------|---------------------------|
|-------------------------|---------------------------|
|-5--5-x-x-3-(3)------x-x-|-5--5-x-x-8--x-x-x-8s10-10-|
|-5--5-x-x-3-(3)--5p3-x-x-|-5--5-x-x-8--x-x-x-8s10-10-|
|-5--5-x-x-3-(3)--5p3-x-x-|-5--5-x-x-8--x-x-x-8s10-10-|
|
| E. S S S E +Q   S S S S   E. S S S E. S S S S  S  e
|-------------------------|---------------------------|
|-------------------------|---------------------------|
|-------------------------|---------------------------|
|-5--5-x-x-3-(3)------x-x-|-5--5-x-x-8--x-x-x-8s10-10-|
|-5--5-x-x-3-(3)--5p3-x-x-|-5--5-x-x-8--x-x-x-8s10-10-|
|-5--5-x-x-3-(3)--5p3-x-x-|-5--5-x-x-8--x-x-x-8s10-10-|


    D5 F5    D5 F5     D5C5    D5 F5    D5     F5     G5A5
    E. S +E  E. S  +E  E E     E. S +E  E.     S  +E  E E    4x
||---------------------------|-------------------------------||
||o--------------------------|------------------------------o||
||-----------------------5---|-------------------------------||
||--0--3-(3)-0--3--(3)-0-5---|-0--3-(3)-0------3--(3)-5-7----||
||o-0--3-(3)-0--3--(3)-0-3---|-0--3-(3)-0------3--(3)-5-7---o||
||--0--3-(3)-0--3--(3)-0-----|-0--3-(3)-0------3--(3)-5-7----||
|
|   E. S +E  E. E.     E S S   E. S +E  S  +E  E.     E S S  4x
||---------------------------|-------------------------------||
||o--------------------------|------------------------------o||
||--2--2-(2)-2--1------1-0-0-|-2--2-(2)-2--(2)S5------5---0--||
||--0--0-(0)-0--0------0-0-0-|-0--0-(0)-0--(0)-0------0-0----||
||o--------------------------|------------------------------o||
||---------------------------|-------------------------------||


 Outro
  D        Bb5                C5       G5
  E. S S S S +Q   +S  E S S   E. S S S E +H       +W           +W
|---------------------------|-------------------|------------|--------*|
|-7--7----------------------|-------------------|------------|--------*|
|-7--7-x-xS3-(3)--(3)-3-x-x-|-5--5-x-x----------|------------|--------*|
|-7--7-x-xS3-(3)--(3)-3-x-x-|-5--5-x-x-5-(5)----|-(5)--------|-(5)----*|
|-5--5-x-xS1-(1)--(1)-1-x-x-|-3--3-x-x-5-(5)----|-(5)--------|-(5)----*|
|---------------------------|----------5-(5)----|-(5)--------|-(5)----*|


Duration Legend
---------------
W - whole; H - half; Q - quarter; E - 8th; S - 16th; T - 32nd; X - 64th; a - acciaccatura
+ - note tied to previous; . - note dotted; .. - note double dotted
Uncapitalized letters represent notes that are staccato (1/2 duration)
Irregular groupings are notated above the duration line
Duration letters will always appear directly above the note/fret number it represents the
duration for.  Duration letters with no fret number below them represent rests.  Multi-
bar rests are notated in the form Wxn, where n is the number of bars to rest for.  Low
melody durations appear below the staff

Tablature Legend
----------------
 h   - hammer-on
 p   - pull-off
 b   - bend
 pb  - pre-bend
 r   - bend release (if no number after the r, then release immediately)
 /\  - slide into or out of (from/to "nowhere")
 s   - legato slide
 S   - shift slide
  - natural harmonic
[n]  - artificial harmonic
n(n) - tapped harmonic
 ~   - vibrato
 tr  - trill
 T   - tap
 TP  - trem. picking
 PM  - palm muting
\n/  - tremolo bar dip; n = amount to dip
 \n  - tremolo bar down
 n/  - tremolo bar up
/n\  - tremolo bar inverted dip
 =   - hold bend; also acts as connecting device for hammers/pulls
 <>  - volume swell (louder/softer)
 x   - on rhythm slash represents muted slash
 o   - on rhythm slash represents single note slash

Misc Legend
-----------
 |  - bar
||  - double bar
||o - repeat start
o|| - repeat end
*|  - double bar (ending)
 :  - bar (freetime)
 $  - Segno
 &  - Coda
Tempo markers -  = BPM(8/16=s8/s16), where s8 = swing 8ths, s16 = swing 16ths
Comments