Silverchair - Pure Massacre Chords & Tabs

 

Pure Massacre Chords & Tabs

Silverchair Chords & Tabs

Version: 5 Type: Tab 0 ratings
1 star 2 stars 3 stars 4 stars 5 stars
comments

Pure Massacre Tab

   
#----------------------------------PLEASE NOTE---------------------------------#
#This file is the author's own work and represents their interpretation of the #
#song. You may only use this file for private study, scholarship, or research. #
#------------------------------------------------------------------------------#

PURE MASSACRE by silverchair
Transposed by Braamo (bpsmith@socs.uts.edu.au)

Drop D Tuning

Riff that's played virtually throughout the song (first guitar)

E---------------------------------------------|
B---------------------------------------------|	
G------------------------------5-5------------|	
D---5-(6)-7-7-7-6^-*-5-5-7-7-7-----5-5-5-(7)--|	
A---------------------------------------------|	
E---------------------------------------------|
and so on...
() = hammer
^ = bend
* = play same note still in bent state

Chords Required:

	D  F  G  A or A Bb  C C5

E---------------------0--1--3--3---
B---------------------2--3--5--3---
G---------------------2--3--5--5---
D-------0--3--5--7----2--3--5--5---
A-------0--3--5--7----0--1--3--3---
D-------0--3--5--7-----------------


Distorted Second guitar basically repeats the following
during the verse:

	D / F D / F D C5 D
	D / F D / F G A

For the chorus, repeat (including the beginning C (may be a
C5 if you can't be bothered) when repeating):

   C   G      F               G       Bb	D
	Pure Massacre!!		Pure Massacre!!

The lead out of the chorus takes you 
straight back into the verse chords.

There is an interlude:

  D  Bb   	 C      G     D  Bb	     C      G
	There's people crying ..... there's people dying.

  D  Bb      C         G     D  Bb    C5
	But someone's taking ..... it all...	

These chords are also used at the end:

	D Bb / C G


Braamo

(bpsmith@socs.uts.edu.au)


From: Bahdees@aol.com
Date: Sat, 11 Nov 1995 14:58:02 -0500
Subject: TAB:

	Here is my version of Pure Mascare by Silverchair =

it may not be correct by here it is.  Comments and questions =
[ Tab from: http://www.guitartabs.cc/tabs/s/silverchair/pure_massacre_tab_ver_5.html ]
aer welcome @aol.com
=0D
Intro
|*|e------------------------------------||
|T|A------------------------------------|| Improvise were needed
|A|D-------------------------5--5-------||
|B|G--5h6h7---7--7--7--5--5--5--5--5--5-||
|*|B--5-------5--5--5--5--5--------5--5-||
|*|E------------------------------------||
=0D
1st verse
|*|e---------------------------------------------------||
|T|B----------------------------------------5--7--9----||
|A|G--2--5---2--5---2--5---2--5---2--5---2--5--7--9----||
|B|D--2--5---2--5---2--5---2--5---2--5---2--5--7--9----||
|*|A--0--3---0--3---0--5---0--3---0--3---0--3--5--7----||
|*|E-------------------3-------------------------------||
=0D
Chorus
There's people crying...
|*|e--------------------------------------||
|T|B--------------------------------------||
|A|G--2---3----5--------2---3----5--------||
|B|D--2---3----5---5----2---3----5---5----||
|*|A--0---1----3---5----0---1----3---5----||
|*|E---------------3-----------------3----||
=0D

Important Bass Riff
|*|G------------------------------------------------------------||
|T|D-----3-------3----------------3-------3------3-----7---9----||
|A|A--5-------5-------5---3---5-------5-------5-----------------||
|B|E------------------------------------------------------------||

--PART.BOUNDARY.0.13118.mail02.mail.aol.com.816119878--



Date: Friday, 7 March
From: David Harrison 
Subject: TAB: "Pure Massacre" by "Silverchair"
Album: "Frogstomp"(1995)

I figured this song out in "Drop D" tuning so you'll
have to tune your top string to "D". It's a pretty easy
song and I'm pretty sure I tabbed it right but if you 
have any questions, comments, corrections, or additions 
feel free to e-mail them to me.


Intro:

E|-----------------------------||
B|-----3-3-3/2-2----3-3-3/6-6--||
G|---0-2-2-2/1-1--0-2-2-2/5-5--||
D|--0--0-0-0/0-0-0--0-0-0/0-0--||
A|-----------------------------||
E|-----------------------------||


Verse:

E|-----------------------------||
B|-----------------------------||
G|-----------------------------||    
D|--0-3-0-3-0-10--0-3-0-3-5-7--||
A|--0-3-0-3-0-10--0-3-0-3-5-7--||
E|--0-3-0-3-0-10--0-3-0-3-5-7--||


Chorus:

E|----------------------------------------------------------||
B|----------------------------------------------------------||
G|----------------------------------------------------------||
D|--5-5-0-3--3-33-5-5-0-8--8-88--0-3-0-3-0-10--0-3-0-3-5-7--||
A|--5-5-0-3--3-33-5-5-0-8--8-88--0-3-0-3-0-10--0-3-0-3-5-7--||
E|--5-5-0-3--3-33-5-5-0-8--8-88--0-3-0-3-0-10--0-3-0-3-5-7--||


Bridge:

E|-------------------------------||
B|-------------------------------||
G|--7-7---3--3-33-5-5------------||
D|--7-7-7/3--3-33-5-5-0-5--5-55--||
A|--5-5-0-1--1-11-3-3-0-5--5-55--||
E|----------------------5--5-55--||


Fill1:
                  [           PROGRESSIVE            ]
E|----------------------------------------------------||
B|----------------------------------------------------||
G|--7-7---3--3-33-5-5-5-5--5-5-5-5--5-5-5-5--5-5-5-5--||
D|--7-7-7/3--3-33-5-5-5-5--5-5-5-5--5-5-5-5--5-5-5-5--||
A|--5-5-0-1--1-11-3-3-3-3--3-3-3-3--3-3-3-3--3-3-3-3--||
E|----------------------------------------------------||






Here's The Order:

Intro:8x-(00:00)
Verse(loud):2x-(00:44)
Verse(quiet)or Intro riff:2x-(00:55)
Verse(medium):2x-(01:06)
Chorus:2x-(01:16)
Intro riff:2x-(01:33)
Verse(quiet) or Intro riff:2x-(01:44)
Verse(medium):2x-(01:54)
Chorus:2x-(02:04)
Intro riff:2x-(02:21)
Bridge:3x-(02:32)
Fill1:1x-(02:48)
Verse(loud):4x-(02:56)
Intro riff:6x-(03:18)
Chorus:4x-(03:47)
Verse(loud):4x-(04:24)
Bridge:1x-(04:45)
Comments