Silverchair - Pure Massacre Chords & Tabs

 

Pure Massacre Chords & Tabs

Silverchair Chords & Tabs

Version: 1 Type: Chords 0 ratings
1 star 2 stars 3 stars 4 stars 5 stars
comments

Pure Massacre Chords

   
#----------------------------------PLEASE NOTE---------------------------------#
#This file is the author's own work and represents their interpretation of the #
#song. You may only use this file for private study, scholarship, or research. #
#------------------------------------------------------------------------------#

PURE MASSACRE by silverchair
Transposed by Braamo (bpsmith@socs.uts.edu.au)

Introduction / Verse

E---------------------------------------------|
B---------------------------------------------|
G------------------------------5-5------------|
D---5-(6)-7-7-7-6^-*-5-5-7-7-7-----5-5-5-(7)--|
A---------------------------------------------|
E---------------------------------------------|
and so on...
() = hammer
^ = bend
* = play same note still in bent state

Chords Required:


    D5   D5/F  C5    D   C   Bb  F   G   A
E--------------------5---3---1---1---3---5---|
B--------------------7---5---3---1---3---5---|
G---7-----7----5-----7---5---3---2---4---6---|
D---7-----7----5-----7---5---3---3---5---7---|
A---5-----8----3-----5---3---1---3---5---7---|
E--------------------------------1---3---5---|

[ Tab from: http://www.guitartabs.cc/tabs/s/silverchair/pure_massacre_crd.html ]
Distorted Second guitar basically repeats the following
during the verse:

D5 /  D5/F  D5  /  D5/F  D5  C5  D5
D5 /  D5/F  D5  /  D5/F  D5  G   A

The G and the A could probably be left out and you could just repeat
the first line over and over, and noone's really gonna notice.

For the chorus, repeat (including the beginning C (may be a
C5 if you can't be bothered) when repeating):

   C   G      F               G       Bb
Pure Massacre!!Pure Massacre!!

D5 /  D5/F  D5  /  D5/F  D5  C5  D5
D5 /  D5/F  D5

The lead out of the chorus takes you 
straight back into the verse chords.

There is an interlude:

  D  Bb    C      G     D  Bb     C      G
There's people crying ..... there's people dying.

  D  Bb      C         G     D  Bb    C5
But someone's taking ..... it all...

These chords are also used at the end:

D Bb / C G


Braamo

(bpsmith@socs.uts.edu.au)
Comments