Silverchair - Punk Song Chords & Tabs

 

Punk Song Chords & Tabs

Silverchair Chords & Tabs

Version: 1 Type: Tab 0 ratings
1 star 2 stars 3 stars 4 stars 5 stars
comments

Punk Song Tab

INTRO
Daniel plays around with the strings (playing them open)
and makes some cool feedback the first couple measures
then plays this
E|--------------------------|
B|--------------------------|
G|----------------5-5-5-5-5-|2x
D|----------------5-5-5-5-5-|
A|----5-4--0------3-3-3-3-3-|
E|--0--------3-0------------|

E|-------*--*--|
B|-x--x--5--5--|
G|-x--x--x--x--|  There is a natural harmonic or two in there
D|-x--x--x--x--|  probably recorded unintentionally
A|-x--x--x--x--|
E|-------------|

VERSE
(between chords daniel does random palm mutes to keep
the rhythm...this is natural for most guitarists...)
E|----------------------------------------------------------|
B|----------------------------------------------------------|
G|-2--2--2-2----4--4-4--4-4----x--7--7--7-7-----9--9-9--9-9-|5x
D|-2--2--2-2--0-4--4-4--4-4--0-x--7--7--7-7-x-0-9--9-9--9-9-|
A|-0--0--0-0--0-2--2-2--2-2--0-x--5--5--5-5-x-0-7--7-7--7-7-|
E|----------------------------------------------------------|

Chorus
E|-----------------------|-----------------------|
B|-----------------------|-----------------------|
G|-2--2--2-2----9-8-7--5-|-2--2--2-2----9-8-7--5-|2x
D|-2--2--2-2--0-9-8-7--5-|-2--2--2-2--0-9-8-7--5-|
A|-0--0--0-0--0-7-6-5--3-|-0--0--0-0--0-7-6-5--3-|
E|-----------------------|-----------------------|

VERSE

CHORUS (play 2 extra times)
[ Tab from: http://www.guitartabs.cc/tabs/s/silverchair/punk_song_tab.html ]
BRIDGE
E|--------------------------------------------------------|
B|--------------------------------------------------------|
G|-4--4--4-4----------------------------------7--7-7--7-7-|4x
D|-4--4--4-4-0--5--5-5--5-5-----/8--8--8-8-0--7--7-7--7-7-|
A|-2--2--2-2-0--5--5-5--5-5-0-0-/8--8--8-8-0--5--5-5--5-5-|
E|--------------3--3-3--3-3-0-0-/6--6--6-6----------------|

INTERLUDE
E|----------------------------|----------------------------|
B|----------------------------|----------------------------|
G|------------------5-5-5-5-5-|------------------5-5-5-5-5-|2x
D|------------------5-5-5-5-5-|------------------5-5-5-5-5-|
A|------5-4--0------3-3-3-3-3-|------5-4--0------3-3-3-3-3-|
E|-0-0---------3-0------------|-0-0---------3-0------------|

E|---------------------------|---------------------------|
B|---------------------------|---------------------------|
G|------7-6-2------5-5-5-5-5-|------7-6-2------5-5-5-5-5-|4x
D|-2-2--7-6-2-5-2--5-5-5-5-5-|-2-2--7-6-2-5-2--5-5-5-5-5-|
A|-2-2--5-4-0-5-2--3-3-3-3-3-|-2-2--5-4-0-5-2--3-3-3-3-3-|
E|-0-0--------3-0------------|-0-0--------3-0------------|

BRIDGE

OUTRO
E|----------------------------|----------------------------|
B|----------------------------|----------------------------|
G|------------------5-5-5-5-5-|------------------5-5-5-5-5-|2x
D|------------------5-5-5-5-5-|------------------5-5-5-5-5-|
A|------5-4--0------3-3-3-3-3-|------5-4--0------3-3-3-3-3-|
E|-0-0---------3-0------------|-0-0---------3-0------------|

E|----------------------------------------------------------|
B|----------------------------------------------------------|
G|-2--2--2-2----4--4-4--4-4----x--7--7--7-7-----9--9-9--9-9-|
D|-2--2--2-2--0-4--4-4--4-4--0-x--7--7--7-7-x-0-9--9-9--9-9-|
A|-0--0--0-0--0-2--2-2--2-2--0-x--5--5--5-5-x-0-7--7-7--7-7-|
E|----------------------------------------------------------|

E|-----------------------|
B|-----------------------|
G|-2--2--2-2----9-8-7--5-|
D|-2--2--2-2--0-9-8-7--5-|
A|-0--0--0-0--0-7-6-5--3-|
E|-----------------------|
Comments