Silverchair - Point Of View Chords & Tabs

 

Point Of View Chords & Tabs

Silverchair Chords & Tabs

Version: 2 Type: Tab 0 ratings
1 star 2 stars 3 stars 4 stars 5 stars
comments

Point Of View Tab

Point of view - silverchair
tuning = G# G# D# G# A# D# . i only have guitar one tabbed out so far.
Tabbed by: "KoRny Freak" 

verses
D#|---5-------5---------------3------3--------|
A#|-----3-------3---------------1------1------|
G#|-5------4-------4-0-0-h-2------2------2--0-|
D#|-0------0-----------0------------0---------|
G#|-0------0----------------------------------|
G#|-------------------------------------------|
you play this riff 3 times i think (double check with the cd to make sure)

then play this right at the end of the verse
D#|---5-------5---------------3------3--------|
A#|-----3-------3---------------1-------------|
G#|-5------4-------4-0-0-h-2------2---------0-|
D#|-0------0-----------0------------0----0----|
G#|-0------0----------------------------------|
G#|-------------------------------------------|

Strum this when he says "remember all that she can say..."
D#|-0------------0---------------|
A#|-1------------0---------------|
G#|-0------------0---------------|
D#|-2------------3---------------|
G#|-0------------0---------------|
G#|------------------------------|

the chorus goes like this
Gtr1
D#|----0------0------0------0------0--------|
A#|-----0------0------0------0------0-------|
G#|-0----0-0----0-0----0-0----0-0----0-0----|
D#|-0------0------0------0------0------0----|
G#|-0------0------0------0------0------0----|
G#|-----------------------------------------|

D#|----0------0------0------0------0--------|
A#|-----3--0---0------0------3------0-------|
G#|-0----0-0----0------0-0----0--------0----|
D#|-5------2------2------5------8------0----|
G#|-5------2------2------5------8------0----|
G#|-----------------------------------------|

D#|-----------------------------------------|
A#|-----------------------------------------|
G#|-0------0-----10--0---0--10-10-10-10-----|
D#|-0------0---------0---0------------------|
G#|-0------0---------0---0------------------|
G#|-----------------------------------------|
[ Tab from: http://www.guitartabs.cc/tabs/s/silverchair/point_of_view_tab_ver_2.html ]
D#|-----------------------------------------|
A#|-----------------------------------------|
G#|-0------0-----10--0---0--10-10-10-0--0---|
D#|-0------0---------0---0-----------0--0---|
G#|-0------0---------0---0-----------0--0---|
G#|-----------------------------------------|

Bridge "pretend the world's another..."
D#|-------------------------------------------|
A#|-1---1-------------------------------------|
G#|-0---0----3-------3---3--3-----------------|
D#|-2---2----3-------3---3--3-----------------|
G#|-0---0----3-------3---3--3-----------------|
G#|-------------------------------------------|

D#|-------------------------------------------|
A#|-1---1-------------------------------------|
G#|-0---0----3-------3---3--3-----------------|
D#|-2---2----3-------3---3--3-----------------|
G#|-0---0----3-------3---3--3-----------------|
G#|-------------------------------------------|

D#|-----------------------------------------|
A#|-----------------------------------------|
G#|-0------0-----10--0---0--10-10-10-10-----|
D#|-0------0---------0---0------------------|
G#|-0------0---------0---0------------------|
G#|-----------------------------------------|

D#|-----------------------------------------|
A#|-----------------------------------------|
G#|-0------0-----10--0---0--10-10-10-0--0---|
D#|-0------0---------0---0-----------0--0---|
G#|-0------0---------0---0-----------0--0---|
G#|-----------------------------------------|

"Pretend the steak's a cowboy..."
D#|-------------------------------------|
A#|--1--------------1-------------------|
G#|--0-------3------0--------3----------|
D#|--2-------3------2--------3----------|
G#|--0-------3------0--------3----------|
G#|-------------------------------------|

For the interlude just play the verse riff twice

Outro                               let ring - |
D#|---5-------5---------------3-----0---------|
A#|-----5-------3---------------1---0---------|
G#|-5------4-------4-0-0-h-2------2-0---------|
D#|-0------0-----------0------------0---------|
G#|-0------0------------------------0---------|
G#|---------------------------------0---------|

If you have any questions or comments, email me at 
silverchair_surfing_bird@hotmail.com



_________________________________________________________________
Get your FREE download of MSN Explorer at http://explorer.msn.com/intl.asp



Comments