Silverchair - Paint Pastel Princess Chords & Tabs

 

Paint Pastel Princess Chords & Tabs

Silverchair Chords & Tabs

Version: 2 Type: Bass Tab 0 ratings
1 star 2 stars 3 stars 4 stars 5 stars
comments

Paint Pastel Princess Bass Tab

silverchair - "Paint Pastel Princess" (Bass Tab)
>From the album "Neon Ballroom"

Transcribed by Kyle Caldwell and Benny Schmerr

Notes:
------
1. The song is downtuned, with a drop D - all the strings except the "E" 
string are tuned
   down a half-step (one fret), and the E is tuned down 1 and a half steps.  
The "E" string
   is then C sharp, the "A" string is then A flat etc...
2. Riff 1 may have some picking errors, as it it very hard to accurately 
transcribe the
   rhythm of one repeating note.
3. If you are not sure about any part of the song, the approximate timings 
shown below
   might help.
4. There are no guarantees that this tab is accurate - it is unofficial.  
However, I personally
   am very sure that this tab is nearly 100% accurate.

Riff Order:
-----------
Fill 1 x 1 (0:15)
Riff 1 x 1 (0:18)
Riff 2 x 4 (0:41)
Fill 1 x 1 (1:04)
Riff 1 x 1 (1:10)
Riff 2 x 4 (1:32)
Riff 3 x 5 (1:55)
Riff 4 x 3 (2:18)
Fill 2 x 1 (2:26)
Riff 5 x 4 (2:28)
Riff 6 x 4 (2:45)
Fill 3 x 1 (3:03)
Fill 4 x 2 (3:18)
Riff 3 x 4 (3:28)
Riff 4 x 2 (3:51)
Riff 2 x 3 (3:57)
Fill 5 x 1 (4:14)

Fill 1:
|-|
|-|
|5|
|-|

Riff 1:
|---------------------------------------------------------------|
|---------------------------------------------------------------|
|5--5--5---5--5--5-5---5--5--5---5--5--5-/---8--8--7---7-7---7-\|
|---------------------------------------------------------------|
[ Tab from: http://www.guitartabs.cc/tabs/s/silverchair/paint_pastel_princess_btab_ver_2.html ]
Riff 1 (cont):
|--------------------------------------------------------------------------------------|
|--------------------------------------------------------------------------------------|
|5--5--5---5--5--5-5---5--5--5---5--5--5-/---8--8--7---7-7---7-/---8--8--10---10-10--10|
|--------------------------------------------------------------------------------------|

Riff 1 (cont):
|-------------------|
|-------------------|
|5--5--5---5--5--5-5|
|-------------------|


Riff 2:
|---------------------------------|
|---------------------------------|
|2---2-2---4---5------------------|
|------------------0---0-0---2---4|

Riff 3:
|-------------------------------------------|
|-------------------------------------------|
|-------------------------------------------|
|0---2---7---7-7---7\---0---2---7---5---5--5|

Fill 2:
|-----------------------------------------------------------------------------|
|-----------------------------------------------------------------------------|
|----------------------------------------3-3-3-3---3-3-3-3---0-0-0-0---0-0-0-0|
|0-0-0-0---0-0-0-0---0-0-0-0---0-0-0-0----------------------------------------|

Riff 4:
|-------------------------|
|-------------------------|
|-------------------------|
|6---6--6--6----6--6--0--0|

Fill 2:
|-------|
|-------|
|-------|
|6--6--6|

Riff 5:
|---------------------------------------|
|---------------------------------------|
|---------------------------------------|
|3--5--7--7--0---0-0-0-0---0-0-0-0---0-0|

Riff 6:
|------------------------------------|
|------------------------------------|
|------------------------------------|
|3--6--4--1--0---0-0-0---0-0-0----0-0|

Fill 3:
|----------|
|----------|
|----------|
|3--6--4--1|

Fill 4:
|----|
|----|
|----|
|0--0|

Fill 5:
|-------------------------|
|-------------------------|
|2---4---5---------------2|
|------------0---2---4----|

"Heaven send hell away and no one sings like you anymore..."
               -Chris Cornell (Soundgarden)
Comments