Silverchair - One Way Mule Chords & Tabs

 

One Way Mule Chords & Tabs

Silverchair Chords & Tabs

Version: 3 Type: Tab 0 ratings
1 star 2 stars 3 stars 4 stars 5 stars
comments

One Way Mule Tab

#----------------------------------PLEASE NOTE---------------------------------#
#This file is the author's own work and represents their interpretation of the #
#song. You may only use this file for private study, scholarship, or research. #
#------------------------------------------------------------------------------#

Artist: Silverchair
Song: One Way Mule (Unreleased)
Album: On forth coming album not yet known
and *Rock In Rio* bootleg.
Tabbed By: Simon Robson.


Tuning Dropped-D (DADGBE)


*Guitar Feedback


INTRO(distortion)x2

E|--------------|------------------------------------------------|
B|--------------|------------------------------------------------|
G|--------------|------------------------------------------------|
D|--------------|-----------------------12/14-14-14-12-14b-12-14-|
A|-9-9-12-9-9-12|-9-9-12-9-9-9/10-10-10-10/12-12-12-10-12b-10-12-|
D|-9-9-12-9-9-12|-9-9-12-9-9-9/10-10-10--------------------------|


E|--------------|------------------------------------------------|
B|--------------|------------------------------------------------|
G|--------------|------------------------------------------------|
D|--------------|-----------------------12/14-14-14-12-11--------|
A|-9-9-12-9-9-12|-9-9-12-9-9-9/10-10-10-10/12-12-12-10-9---------|
D|-9-9-12-9-9-12|-9-9-12-9-9-9/10-10-10--------------------------|


VERSE

E|--------------|------------------------------------------------|
B|--------------|------------------------------------------------|
G|--------------|------------------------------------------------|
D|--------------|-----------------------12/14-14-14-12-14b-12-14-|
A|-9-9-12-9-9-12|-9-9-12-9-9-9/10-10-10-10/12-12-12-10-12b-10-12-|
D|-9-9-12-9-9-12|-9-9-12-9-9-9/10-10-10--------------------------|
Let my spirit ride on one way mule


E|--------------|------------------------------------------------|
B|--------------|------------------------------------------------|
G|--------------|------------------------------------------------|
D|--------------|-----------------------12/14-14-14-12-11--------|
A|-9-9-12-9-9-12|-9-9-12-9-9-9/10-10-10-10/12-12-12-10-9---------|
D|-9-9-12-9-9-12|-9-9-12-9-9-9/10-10-10--------------------------|
Blistered skin in a cold hearted room



E|--------------|------------------------------------------------|
B|--------------|------------------------------------------------|
G|--------------|------------------------------------------------|
D|--------------|-----------------------12/14-14-14-12-14b-12-14-|
A|-9-9-12-9-9-12|-9-9-12-9-9-9/10-10-10-10/12-12-12-10-12b-10-12-|
D|-9-9-12-9-9-12|-9-9-12-9-9-9/10-10-10--------------------------|
Distant demotion on a concrete wall


E|--------------|--------------------------------------------|
B|--------------|--------------------------------------------|
G|--------------|--------------------------------------------|
D|--------------|---------------------------10---12--7-10-9--|
A|-9-9-12-9-9-12|-9-9-12-9-9-9/10-10-10---10---12---7--10-9--|
D|-9-9-12-9-9-12|-9-9-12-9-9-9/10-10-10-10---12----7---10-9--|
Naked naked I'll climb right back to you

chorus


E|-----0-----------------------------------------0----------------------------------------------|
B|------0-----0---0-------0-----------------------0--------0---0--------------------------------|
G|-------------------------------------------------------------------0-----0----0---------------|
D|---9---9-------------10---10---------10---7--9---9------------------0-----0----0--------------|
A|--9-------12--7----10-------10----10----7---9----------12---7----10----12----7-----10-9-------|
d|-9------12---7---10-------------10-----7---9---------12----7---10----12-----7------10-9-------|
Love me for my mind 'coz im a dangerous heart


E|--------------|------------------------------------------------|
B|--------------|------------------------------------------------|
G|--------------|------------------------------------------------|
D|--------------|-----------------------12/14-14-14-12-14b-12-14-|
A|-9-9-12-9-9-12|-9-9-12-9-9-9/10-10-10-10/12-12-12-10-12b-10-12-|
D|-9-9-12-9-9-12|-9-9-12-9-9-9/10-10-10--------------------------|


E|--------------|--------------------------------------------|
B|--------------|--------------------------------------------|
G|--------------|--------------------------------------------|
D|--------------|---------------------------10---12--7-10-9--|
A|-9-9-12-9-9-12|-9-9-12-9-9-9/10-10-10---10---12---7--10-9--|
D|-9-9-12-9-9-12|-9-9-12-9-9-9/10-10-10-10---12----7---10-9--|


E|--------------|------------------------------------------------|
B|--------------|------------------------------------------------|
G|--------------|------------------------------------------------|
D|--------------|-----------------------12/14-14-14-12-14b-12-14-|
A|-9-9-12-9-9-12|-9-9-12-9-9-9/10-10-10-10/12-12-12-10-12b-10-12-|
D|-9-9-12-9-9-12|-9-9-12-9-9-9/10-10-10--------------------------|
Distant demotion on a concrete wall


E|--------------|------------------------------------------------|
B|--------------|------------------------------------------------|
G|--------------|------------------------------------------------|
D|--------------|-----------------------12/14-14-14-12-11--------|
A|-9-9-12-9-9-12|-9-9-12-9-9-9/10-10-10-10/12-12-12-10-9---------|
D|-9-9-12-9-9-12|-9-9-12-9-9-9/10-10-10--------------------------|


BRIDGE


E|--------------------------------------------------------|
B|--------------------------------------------------------|
G|-----------------------------10-10-10-10----------------|
D|-----------------------------10-10-10-10----------------|
A|-9-9-12-9-9-12-9-9-12-9-9-12-8--8--8--8-----------------|
D|-9-9-12-9-9-12-9-9-12-9-9-12----------------------------|


E|------------------------------------------------|
B|------------------------------------------------|
G|----------------------------------10-10-10-10---|
D|----------------------------------10-10-10-10---|
A|-9-9-12-9-9-12-9-9-12-9-9-12------8--8--8--8----|
D|-9-9-12-9-9-12-9-9-12-9-9-12--------------------|


E|------------------------------------------|
B|------------------------------------------|
G|-----------------------------10-10-10-----|
D|-----------------------------10-10-10-----|
A|-9-9-12-9-9-12-9-9-12-9-9-12-8--8--8------|
D|-9-9-12-9-9-12-9-9-12-9-9-12--------------|


E|------------------------------------------------------|
B|------------------------------------------------------|
G|-----------------------------10-10-10-----------------|
D|-----------------------------10-10-10-----------------|
A|-9-9-12-9-9-12-9-9-12-9-9-12-8--8--8------------------|
D|-9-9-12-9-9-12-9-9-12-9-9-12--------------------------|
Do you feel?
[ Tab from: http://www.guitartabs.cc/tabs/s/silverchair/one_way_mule_tab_ver_3.html ]
E|------------------------------------------------------|
B|------------------------------------------------------|
G|-----------------------------10-10-10-----------------|
D|-----------------------------10-10-10-----------------|
A|-9-9-12-9-9-12-9-9-12-9-9-12-8--8--8------------------|
D|-9-9-12-9-9-12-9-9-12-9-9-12--------------------------|
Do you feel?

E|------------------------------------------------------|
B|------------------------------------------------------|
G|-----------------------------10-10-10-----------------|
D|-----------------------------10-10-10-----------------|
A|-9-9-12-9-9-12-9-9-12-9-9-12-8--8--8------------------|
D|-9-9-12-9-9-12-9-9-12-9-9-12--------------------------|
Do you need?

chorus

E|-----0-----------------------------------------0----------------------------------------------|
B|------0-----0---0-------0-----------------------0--------0---0--------------------------------|
G|-------------------------------------------------------------------0-----0----0---------------|
D|---9---9-------------10---10---------10---7--9---9------------------0-----0----0--------------|
A|--9-------12--7----10-------10----10----7---9----------12---7----10----12----7-----10-9-------|
d|-9------12---7---10-------------10-----7---9---------12----7---10----12-----7------10-9-------|
Love me for my mind 'coz im a dangerous heart


E|--------------|---------|------------|-------------------------| 
B|--------------|---------|----------12|-------------------------| 
G|--------------|---------|----------11|-------------------------| 
D|--------------|---------|------------|-------------------------| 
A|-9-9-12-9-9-12|-9-9-12-9|-9-12-9-x---|---9-12-9-9-12-----------| D|-9-9-12-9-9-12|-9-9-12-9|-9-12-9-x---|---9-12-9-9-12-----------| 


E|--------------|------------------------------------------------|
B|--------------|------------------------------------------------|
G|--------------|------------------------------------------------|
D|--------------|-----------------------12/14-14-14-12-14b-12-14-|
A|-9-9-12-9-9-12|-9-9-12-9-9-9/10-10-10-10/12-12-12-10-12b-10-12-|
D|-9-9-12-9-9-12|-9-9-12-9-9-9/10-10-10--------------------------|
Patient, we're all asleep in some danger

E|--------------|------------------------------------------------|
B|--------------|------------------------------------------------|
G|--------------|------------------------------------------------|
D|--------------|-----------------------12/14-14-14-12-11--------|
A|-9-9-12-9-9-12|-9-9-12-9-9-9/10-10-10-10/12-12-12-10-9---------|
D|-9-9-12-9-9-12|-9-9-12-9-9-9/10-10-10--------------------------|
run my way GO


BRIDGE
E|------------------------------------------------------|
B|------------------------------------------------------|
G|-----------------------------10-10-10-----------------|
D|-----------------------------10-10-10-----------------|
A|-9-9-12-9-9-12-9-9-12-9-9-12-8--8--8------------------|
D|-9-9-12-9-9-12-9-9-12-9-9-12--------------------------|

E|------------------------------------------------------|
B|------------------------------------------------------|
G|-----------------------------10-10-10-----------------|
D|-----------------------------10-10-10-----------------|
A|-9-9-12-9-9-12-9-9-12-9-9-12-8--8--8------------------|
D|-9-9-12-9-9-12-9-9-12-9-9-12--------------------------|


E|------------------------------------------------------|
B|------------------------------------------------------|
G|-----------------------------10-10-10-----------------|
D|-----------------------------10-10-10-----------------|
A|-9-9-12-9-9-12-9-9-12-9-9-12-8--8--8------------------|
D|-9-9-12-9-9-12-9-9-12-9-9-12--------------------------|

E|------------------------------------------------------|
B|------------------------------------------------------|
G|-----------------------------10-10-10-----------------|
D|-----------------------------10-10-10-----------------|
A|-9-9-12-9-9-12-9-9-12-9-9-12-8--8--8------------------|
D|-9-9-12-9-9-12-9-9-12-9-9-12--------------------------|



-SOLO- 

(I know its not excatcly right but its a base to help you.I will update it.) 



|-------full bend---------|
|----release(2/4)--| 
E|---------------------------------------------------------------------------------------------|
B|---------------------------------------------------------------------------------------------|
G|---------------------------------------------------------------------------------------------|
D|-------------0--19b(2/4)--19b-19b-19-19-19-19-19-19-19-19--19-19-19-19-19-19--19-19-19-19-19-|
A|-18b(3/4)*---0-------------------------------------------------------------------------------|
D|-------------0-------------------------------------------------------------------------------|
*vibrato

E|----------------------------------------------------------------------------------------|
B|----------------------------------------------------------------------------------------|
G|---------------------------------------------------------------19----19b-19-------19b-19|
D|-18*-18-18-18-18-18-17*-17-17-17-16--14-12-14b(3/4)--0---19-21----21--------21-19-------|
A|-----------------------------------------------------0----------------------------------|
D|-----------------------------------------------------0----------------------------------|
*vibrato

E|---------------------------------------------------------------------------------------|
B|---------------------------------------------------------------------------------------|
G|---------------------------------------------------------------------------------------|
D|--21-19^21^--17-19-19b(3/4)------------------------------------------------------------|
A|---------------------------------------------------------------------------------------|
D|---------------------------------------------------------------------------------------|




chorus(Clean)

E|-------0-----------------------------------------0-----------------------------------------|
B|-0-------0-----0---0-------0-----------------------0------0---0----------------------------|
G|-0------------------------------------------------------------------0-----0----0-----------|
D|-----9---9-------------10---10---------10---7--9---9----------------0-----0----0-----------|
A|----9-------12--7----10-------10----10----7---9--------12---7----10----12----7-----10-9----|
d|---9------12---7---10-------------10-----7---9-------12----7---10----12-----7------10-9----|
Love me for my mind.....


OUTRO

E|-----------|---------------------|----------------------------------------|
B|-----------|----------12---x-----|------------x--------x-----x------------|
G|-----------|------------11-x--10-|------------x-10-----x-9---x-5----3--3--|
D|-----------|---------------x--10-|------------x-10-----x-9---x-5----3--3--|
A|-9-10/12-9-|-9-10/12-9--------8--|-9-10/12-9----8--------7-----3----1--1--|
D|-9-10/12-9-|-9-10/12-9-----------|-9-10/12-9------------------------------
Comments