Silverchair - One Way Mule Chords & Tabs

 

One Way Mule Chords & Tabs

Silverchair Chords & Tabs

Version: 2 Type: Tab 0 ratings
1 star 2 stars 3 stars 4 stars 5 stars
comments

One Way Mule Tab

#----------------------------------PLEASE NOTE---------------------------------#
#This file is the author's own work and represents their interpretation of the #
#song. You may only use this file for private study, scholarship, or research. #
#------------------------------------------------------------------------------#

Song: One Way Mule
Band: Silverchair
Album: Diorama
Tabbed by arlen b, 4/10/02
E-Mail: kingoftheeskimos@yahoo.ca 
Website: http://www.geocities.com/kingoftheeskimos
 
Tuning: From standard, tune the low E string down to a B. 

Intro:
e----------------------------------------------------------
B----------------------------------------------------------
G----------------------------------------------------------
D----------------------------------------------------------
A-2--2--5-2-2-5---2--5-2-2--3--3-3-/12--12-12-1012b13r-1012
B-0--0--3-0-0-3---0--3-0-0--1--1-1-/10--10-10-8-10b11r-8-10
 
e----------------------------------------------------------
B----------------------------------------------------------
G----------------------------------------------------------
D----------------------------------------------------------
A--2--2--5-2-2-5---2--5-2-2--3--3-3-/12-/12-12-10109-9-----
B--0--0--3-0-0-3---0--3-0-0--1--1-1-/10-/10-10-8-8-7-7-----
 
Verse: Play intro riffs
 
e----------------------------------------------------------
B----------------------------------------------------------
G------------------------------5---2---5-------------------
D-----------------------------5-5-2-2-5-5------------------
A--2--2--5-2-2-5---2--5-2-2--3---0---3----3-3--------------
B--0--0--3-0-0-3---0--3-0-0--------------------------------
[ Tab from: http://www.guitartabs.cc/tabs/s/silverchair/one_way_mule_tab_ver_2.html ]
 
Chorus: (with variation)
e------0--------------------------------0------------------
B-------0---------------1-----1----------0-----------------
G----4----4---7---2---0--0-0---0--2---4----4---7---2-------
D---4-4--4---7-7-2-2-2-2--2--2---2-2-4-4--4---7-7-2-2------
A--2-------/5---0---3-------3---0---2-------/5---0---------
B----------------------------------------------------------
Love me for my mind ...
 
e----------------------------------------------------------
B----------------------------------------------------------
G----5----7---2--------------------------------------------
D---5-5--7-7-2---------------------------------------------
A--3---/5---0--0-3-5---------------------------------------
B----------------------------------------------------------
  PM___
I’m comin’ back to you
 
Pre-Verse:
e----------------------------------------------------------
B----------------------------------------------------------
G----------------------------------------------------------
D----------------------------------------------------------
A-2--2--5-2-2-5---2--5-2-2--3--3-3-/12--12-12-1012b13r-1012
B-0--0--3-0-0-3---0--3-0-0--1--1-1-/10--10-10-8-10b11r-8-10
 
e----------------------------------------------------------
B----------------------------------------------------------
G------------------------------5---2---5-------------------
D-----------------------------5-5-2-2-5-5------------------
A--2--2--5-2-2-5---2--5-2-2--3---0---3----3-3--------------
B--0--0--3-0-0-3---0--3-0-0--------------------------------
 
Verse 2: 
 
Chorus:
Love me for my mind ...
 
e------0---------------------------------0-----------------
B-------0----------------1-----1----------0----------------
G----4----4---7--------0--0-0---0--2---4----4---7---2------
D---4-4--4---7-7------2-2--2--2---2-2-4-4--4---7-7-2-2-----
A--2-------/5---0-2--3-------3---0---2-------/5---0--------
B----------------------------------------------------------
 PM_
A stakeout just to find

 
e----------------------------------------------------------
B----------------------------------------------------------
G----5----7---2--------------------------------------------
D---5-5--7-7-2---------------------------------------------
A--3---/5---0--0-3-5---------------------------------------
B----------------------------------------------------------
  PM___
I’m comin’ back to you
 
Bridge:
e----------------------------------------------------------
B----------------------------------------------------------
G----------------------------------------------------------
D----------------------------------------------------------
A----------------------------------------------------------
B--0-0-3-0-0-1-0-0-3-0-0-4--1-4-5-8-0----------------------
 
Chorus:
Love me for my mind ...
 
e----------------------------------------------------------
B----------------------------------------------------------
G----0---0---0---------------------------------------------
D---2-2-2-2-2-2--------------------------------------------
A--3---5---0---3-3-----------------------------------------
B----------------------------------------------------------
PM_
I’m comin’ back to you
 
e------0--------------------------------0------------------
B-------0---------------1-----1----------0-----------------
G----4----4---7---2---0--0-0---0--2---4----4---7---2-------
D---4-4--4---7-7-2-2-2-2--2--2---2-2-4-4--4---7-7-2-2------
A--2-------/5---0---3-------3---0---2-------/5---0---------
B---------------------------------------------------------
 
e----------------------------------------------------------
B----------------------------------------------------------
G----------------------------------------------------------
D----------------------------------------------------------
A-3~--5~--7~--10~------------------------------------------
B----------------------------------------------------------
I’m comin’ back for you
 
Outro:
e----------------------------------------------------------
B----------------------------------------------------------
G----------------------------------------------------------
D----------------------------------------------------------
A--2--2--5-2-2-5--2--5-2-2-5-(and so on)-------------------
B--0--0--3-0-0-3--0--3-0-0-3-------------------------------
To you…
 
Final Riff:
Guitar 1:
e----------------------------------------------------------
B----------------------------------------------------------
G----10----9----5----3-------------------------------------
D--x-10--x-9--x-5--x-3-------------------------------------
A--x-8---x-7--x-3--x-1-------------------------------------
B--x-----x----x----x---------------------------------------
 
Guitar 2:
e----------------------------------------------------------
B----------------------------------------------------------
G----------------------------------------------------------
D--x-----x----x----x---------------------------------------
A--x-8---x-7--x-3--x-6-------------------------------------
B--x-6---x-5--x-1--x-4-------------------------------------

not precisely sure how to play this final riff; i know daneil does 
it live (with one guitar, obviously), but i can’t figure out how 
with the E string tuned down as it is. apologies.
Comments