Silverchair - One Way Mule Chords & Tabs

 

One Way Mule Chords & Tabs

Silverchair Chords & Tabs

Version: 1 Type: Tab 0 ratings
1 star 2 stars 3 stars 4 stars 5 stars
comments

One Way Mule Tab

Silverchair
One Way Mule
Diorama Track 5

Note : This song is played with the lowest E string dropped down to B to enable 
octave chords to be played on the bottom strings. This IS how he plays it ! 
I've watched shit loadsa videos and im pretty sure its correct.


Intro (play this once/heavy distortion)                                                   

e |---------------------------------------------------
B |---------------------------------------------------
G |-44---44----4---444--------------------------------
D |-44---44----4---444--------------------------------
A |-22---22----2---222--3-333-/-12-1212-10-12b-10-12--
B |----3----3----3------1-111-/-10-1010-8--10b-8--10--


e |-------------------------------------------(7)harmonics-
B |-------------------------------------------(7)----------
G |-44---44---4-------------------------------(7)----------
D |-44---44---4---444--------------------------------------
A |-22---22---2---222--3-333-/-12-1212-1010-9--------------
B |----3----3---3------1-111-/-10-1010-8 8--7--------------


Verse One

e |---------------------------------------------------
B |---------------------------------------------------
G |-44---44----4---444--------------------------------
D |-44---44----4---444--------------------------------
A |-22---22----2---222--3-333-/-12-1212-10-12b-10-12--
B |----3----3----3------1-111-/-10-1010-8--10b-8--10--


e |--------------------------------------------
B |--------------------------------------------
G |-44---44---4--------------------------------
D |-44---44---4---444--------------------------
A |-22---22---2---222--3-333-/-12-1212-1010-9--
B |----3----3---3------1-111-/-10-1010-8 8--7--
 
Last vocal line of verse one.                                            

e |-------------------------0-----0-----0------
B |--------------------------------------------
G |-44---44----4---444-------------------------
D |-44---44----4---444----5-----7-----2--------
A |-22---22----2---222--3-----5-----0-----3/5--
B |----3----3----3-----------------------------



Chorus One (less gain on distortion)                                                                         

e |---------0------------0--------0------------0------------0--------0----
B |-----------0---0--------0--------0------------0---0--------0--------0--
G |-----4-------4--------------------------5-------5----------------------
D |---4---4------------7--------2--------5---5------------7--------2------
A |-2----------------5--------0--------3----------------5--------0--------
B |-----------------------------------------------------------------------


e |---------0-------------0--------0--------0------0-------0--
B |-----------0---0---------0--------0------------------------
G |-----4-------4---------------------------------------------
D |---4---4-------------7--------2--------5------7-------2----
A |-2-----------------5--------0--------3------5-------0------
B |-----------------------------------------------------------



Interlude before Verse Two (heavy distortion)                                                     

e |-------------------------------------------------------
B |-------------------------------------------------------
G |------44---44----4---444-------------------------------
D |------44---44----4---444-------------------------------
A |-3/5--22---22----2---222--3-333/-12-1212-10-12b-10-12--
B |-1/3-----3----3----3------1-111/-10-1010-8--10b-8--10--


                                                      
e |-------------------------0--------0--------0--------
B |---------------------------0--------0--------0------
G |-44---44----4---444---------------------------------
D |-44---44----4---444----5--------7--------2----------
A |-22---22----2---222--3--------5--------0--------3/5-
B |----3----3----3---------------------------------1/3-


Verse Two (play this twice)

e |--------------------------------------------------
B |--------------------------------------------------
G |-44---44----4---444-------------------------------
D |-44---44----4---444-------------------------------
A |-22---22----2---222--3-333-/-12-1212-10-12b-10-12-
B |----3----3----3------1-111-/-10-1010-8--10b-8--10-


e |--------------------------------------------
B |--------------------------------------------
G |-44---44---4--------------------------------
D |-44---44---4---444--------------------------
A |-22---22---2---222--3-333-/-12-1212-1010-9--
B |----3----3---3------1-111-/-10-1010-8 8--7--


Chorus Two (less gain on distortion)
[ Tab from: http://www.guitartabs.cc/tabs/s/silverchair/one_way_mule_tab.html ]
                                                                     
e |---------0------------0--------0------------0------------0--------0----
B |-----------0---0--------0--------0------------0---0--------0--------0--
G |-----4-------4--------------------------5-------5----------------------
D |---4---4------------7--------2--------5---5------------7--------2------
A |-2----------------5--------0--------3----------------5--------0--------
B |-----------------------------------------------------------------------

e |---------0-------------0--------0--------0------0-------0--
B |-----------0---0---------0--------0------------------------
G |-----4-------4---------------------------------------------
D |---4---4-------------7--------2--------5------7-------2----
A |-2-----------------5--------0--------3------5-------0------
B |-----------------------------------------------------------

e |---------0------------0----0-----------0------------0----------
B |-----------0---0--------0--0-------------0---0--------0--------
G |-----4-------4-------------2-------5-------5-------------------
D |---4---4------------7------2-----5---5------------7------------
A |-2----------------5--------0---3----------------5--------3-55--
B |---------------------------------------------------------1-33--


e |---------0------------0--------0--------0------0-------0--------
B |-----------0---0--------0--------0------------------------------
G |-----4-------4--------------------------------------------------
D |---4---4------------7--------2--------5------7-------2----------
A |-2----------------5--------0--------3------5-------0------3-55--
B |----------------------------------------------------------1-33--


Pre-solo riff

e |-----------------------------
B |-----------------------------
G |-----------------------------
D |-----------------------------
A |-----------------------------
B |-00-3-00-1-00-3-00-44-0-4-7--


Solo (very disorted gtr with feedback from amp)
Will be posted soon, im still working on it.


Chorus Three (Clean)

e |---------0------------0--------0------------0------------0--------0----
B |-----------0---0--------0--------0------------0---0--------0--------0--
G |-----4-------4--------------------------5-------5----------------------
D |---4---4------------7--------2--------5---5------------7--------2------
A |-2----------------5--------0--------3----------------5--------0--------
B |-----------------------------------------------------------------------

e |---------0-------------0--------0--------0------0-------0-------
B |-----------0---0---------0--------0-----------------------------
G |-----4-------4--------------------------------------------------
D |---4---4-------------7--------2--------5------7-------2---------
A |-2-----------------5--------0--------3------5-------0-----------
B |-----------------------------------------------------------1/3--

e |---------0------------0-------0----------0--------------0----
B |-----------0---0--------0-------0----------0---0----------0--
G |-----4-------4-------------------------5-----5---------------
D |---4---4------------7-------2--------5----------------7------
A |-2----------------5-------0--------3----------------5--------
B |-0-----------------------------------------------------------


e |---------0------------0--------0-------------------------------------
B |-----------0---0--------0--------0-----------------------------------
G |-----4-------4------------------------5555---7777---9999---12121212--
D |---4---4------------7--------2--------xxxx---xxxx---xxxx---x-x-x-x---
A |-2----------------5--------0----------3333---5555---7777---10101010--
B |---------------------------------------------------------------------


Outro Riff


e |------------------------------------------------------      
B |------------------------------------------------------
G |-44---44-------4----44-------4----44-------4----44----
D |-44---44-------4----44-------4----44-------4----44----
A |-22---22-------2----22-------2----22-------2----22----
B |-00-3-00-3-----0--3-00-3-----0--3-00-3-----0-3--00-3---


e |------------(7)(harmonics)----------------      
B |------------(7)---------------------------
G |-44---44----(7)---4---44------44---44-----
D |-44---44----------4---44------44---44-----
A |-22---22----------2---22------22---22-----
B |-00-3-00-3--------0-3-00-3----00-3-00-3---

e |-----------------
B |-----------------
G |--------------3--
D |--------------3--
A |--8---7---3---1--
B |-x6--x5--x1--x---

Hope you enjoy this tab.
Any questions or changes are welcome
email me : cocky_kingadoraaregods@hotmail.com
Cheers
Comments