Silverchair - One Way Mule Chords & Tabs

 

One Way Mule Chords & Tabs

Silverchair Chords & Tabs

Version: 2 Type: Bass Tab 0 ratings
1 star 2 stars 3 stars 4 stars 5 stars
comments

One Way Mule Bass Tab

   
One Way Mule-Silverchair
this was tabbed by matt green
tuning-dropped >D< 
if you have any problems e-mail me at:
shifty_no_1@hotmail.com
I don't have my website up yet but if you mail me
i'll send you some other tabs and my site.


its a simple tab but you will have to listen to the song first to get the rythmn.

(Tune down  E string down to D)
Main Riff
G|--------------------------------------------
D|--------------------------------------------
A|--------------------------------------------
B|-0-0-3-00-3-0-3-00-1-1-1/10-10-10-8-10-8-10-
[ Tab from: http://www.guitartabs.cc/tabs/s/silverchair/one_way_mule_btab_ver_2.html ]
G|--------------------------------------------|
D|--------------------------------------------|
A|--------------------------------------------|
B|-0-0-3-00-3-0-3-00-1-1-1/10-10-10-8-7-7-7---|leads into Chorus
G|----------------------------------------------
D|----------------------------------------------
A|-----------------------------3---5---7---10-9-
B|-0-0-3-00-3-0-3-00----------------------------

Chorus
G|--------------------
D|--------------------
A|-5---0--3--3--0--2--
B|--------------------


leads to main riff:
G|----------------------------|
D|----------------------------|
A|-5---0--3--5---7--10-9------|
B|----------------------------|


Bridge(not sure if it's right)
G|-------------------------------------|
D|-------------------------------------|
A|-------------------------------------|
B|-0-0-3-0-0--1-0-0--3-0-0--4-0-0--5-0-|

Outro:
G|--------------------|
D|--------------------|
A|--------------------|
B|-0-0-3-00-3-0-3-00-3|

then after a little bit of that it goes...

G|-----------------|
D|-----------------|
A|-0-8-0-7-0-3-0-6-|
B|-----------------|
Comments