Silverchair - One Way Mule Chords & Tabs

 

One Way Mule Chords & Tabs

Silverchair Chords & Tabs

Version: 1 Type: Bass Tab 0 ratings
1 star 2 stars 3 stars 4 stars 5 stars
comments

One Way Mule Bass Tab

One Way Mule- Silverchair (Diorama)

Its an awesome song and to save bass players tunning down to dropped D
play the following in standard tunning:

Intro/Verse

G-------------------------------------------------------------------
D--------0------------0---------------------------------------------
A---2-2----2-2-2---2-----2-2-2---3-3--------------------------------
E-------------------------------------5--5-5---3--6--5--3--5--------

Chorus
[ Tab from: http://www.guitartabs.cc/tabs/s/silverchair/one_way_mule_btab.html ]
G-------------------------------------------------------------------
D--------0--0-------------------------------------------------------
A--2--2--------3--3-------------------------------------------------
E---------------------5--5------------------------------------------

Second chorus repeats this twice

Lyrics:

Let my spirit ride on a one way mule
Blistered skin in a cold hearted pool
Distant emotion hides a concrete wall
Naked and anchored ill climb right back...to you

Love me for my mind cause' im a dangerous heart
when ive got time to kill im coming back for you
ill stake out just to find 
the knife in a dangerous heart
when ive got time to kill im coming back for you

Distant memories in a cage by my bed
Viscid dreams stick to holes in my head
But a patient career of sleep in a sunday dress
Rides my wake

Cheers, have fun with it
any gripes? email me- bob_the_hobo69@hotmail.com 
Comments