Silverchair - No Association Chords & Tabs

 

No Association Chords & Tabs

Silverchair Chords & Tabs

Version: 3 Type: Bass Tab 0 ratings
1 star 2 stars 3 stars 4 stars 5 stars
comments

No Association Bass Tab

SILVERCHAIR-NO ASSOCIATION BASS TAB

Tabbed By: Mr. Green
Album: Freak Show
Bassist: Chris Joannou

Dropped-D tuning (Tune E-string down one step to D)
Timing: 4/4
/  = Slide up
.  = Staccato note
pm = Palm Mute


I looked at the other versions of this tab on this site, and though I agree that this
song is really easy to play, I think there were some riffs missed out on.


Start after the "wonky sounds":

Riff 1 (0:17)
G:-----------------------------------------------|
D:-----------------------------------------------|
A:-----------------------------------------------| x12
D:-0-2-2-0-4-3-0-6-5-0-8-7-0-11------------------|


Riff 2(0:57)
G:-----------------------------------------------|
D:-----------------------------------------------|
A:-----------------------------------------------| x4
D:-0-2-2-pm---------0-2-2-0-2-3-3----------------|


Riff 1 (1:24)
G:-----------------------------------------------|
D:-----------------------------------------------|
A:-----------------------------------------------| x3
D:-0-2-2-0-4-3-0-6-5-0-8-7-0-11------------------|


Then play this riff at (1:34). It is only a slight variation of Riff 1:
G:-----------------------------------------------|
D:-----------------------------------------------|
A:-----------------------------------------------|
D:--0-2-2-0-4-3-4-3-0-6-5-0-8-7-0-11-------------|


Back to Riff 2; play four times

Back to Riff 1; play four times


G:-----------------------------------------------|
D:-----------------------------------------------|
A:-----------------------------------------------|  x4
D:-02-02-02-02-pm--------------------------------|

[ Tab from: http://www.guitartabs.cc/tabs/s/silverchair/no_association_btab_ver_3.html ]
Then this comes in at 2:31 twice
G:-----------------------------------------------|
D:-----------------------------------------------|
A:-----------------------------------------------|
D:-02-02-02-02-0/6-------------------------------|

G:-----------------------------------------------|
D:-----------------------------------------------|
A:-----------------------------------------------|
D:-02-02-02-02-0/8-------------------------------|

G:-----------------------------------------------|
D:-----------------------------------------------|
A:-----------------------------------------------|
D:-02-02-02-02-0/6-------------------------------|

G:-----------------------------------------------|
D:-----------------------------------------------|
A:-----------------------------------------------|  x2
D:-02-02---3---1---------------------------------|


Play this four times (2:57)
G:-----------------------------------------------|
D:-----------------------------------------------|
A:-----------------------------------------------|
D:-0-2-2----0-2-2-0-2-3-3------------------------|


Here the guitar plays a couple of riffs on its own

Then Chris joins in at (3:29) with:
G:-----------------------------------------------|
D:-----------------------------------------------|
A:-----------------------------------------------|
D:-111-444---------------------------------------|
   ... ...

Then:
G:-----------------------------------------------|
D:-----------------------------------------------|
A:-----------------------------------------------| x4
D:-0-2-2-0-2--3-3--1--1-1/4--4-4-----------------|

Then play Riff 2 once.

Feel free to write to Mr. Green at godric_era@hotmail.com if you have any comments or
corrections for this tab.
Comments