Silverchair - My Favourite Thing Chords & Tabs

 

My Favourite Thing Chords & Tabs

Silverchair Chords & Tabs

Version: 2 Type: Tab 0 ratings
1 star 2 stars 3 stars 4 stars 5 stars
comments

My Favourite Thing Tab

   
intro
  C         D/A       Em
|------------------------------------------|
|-----1---------3-----------------0--------|
|-------0---------2-----------------0------|
|-2-2-----2-0-0-----0-4-4-5---2-2-----2----|
|-3---------0---------2-----2--------------|
|---------------------0--------------------|2x

Same guitar riff is used in the song

C      D/A   Em         C    D/A   Em  C
Got my fever down, then weighed it up, and know the
D/A    Em             
Sounds remaining 

  Bb        C         Em
|------------------------------------------|
|-----3---------5-----------------0--------|
|-------3---------5-----------------0------|
|-3-3-----3-5-5-----5-4-4-5---2-2-----2----|
|-1---------3---------2-----2--------------|
|---------------------0--------------------|

      Bb             C            Em
won't strain all the silt from my eyes
 
C          D/A            Em        C            D/A
Bleach the green from the pastures, feast on the grey
       E 
Of the night, 

  Bb      A       Em      F
|--------------------------------------|
|-----3-------2-------0-------1--------|
|-------3-------2-------0-------1------|
|-3-3-----2-2---------------------2----|
|-1-------0-------2-2-----3-3----------|
|-----------------0-------1------------|

Bb                A       Em       F
straight from the vines refusal to shine 

C      D  E         C    Dm Em
You're my favourite thing
C      D  E
You're my favourite
    C          Em 
the one that I love
    C          Am  C          Em       
the one so I'd die__ for your love 

  C         D/A       Em
|------------------------------------------|
|-----1---------3-----------------0--------|
|-------0---------2-----------------0------|
|-2-2-----2-0-0-----0-4-4-5---2-2-----2----|
|-3---------0---------2-----2--------------|
|---------------------0--------------------|2x
[ Tab from: http://www.guitartabs.cc/tabs/s/silverchair/my_favourite_thing_tab_ver_2.html ]
|piano part| 
                                                C5 B5
Blind the deafened moon, stimulate the tombs of angels

  Bb      A       Em      F
|--------------------------------------|
|-----3-------2-------0-------1--------|
|-------3-------2-------0-------1------|
|-3-3-----2-2---------------------2----|
|-1-------0-------2-2-----3-3----------|
|-----------------0-------1------------|
 
     Bb      A     Em         F
I'll open my heart won't fall apart
   Em         D
so don't fall apart

C      D  E         C    Dm Em
You're my favourite thing
C      D  E
You're my favourite
    C          Em 
the one that I love
    C          Am  C          Am   C      
the one so I'd die__ for your love 

      Em        D       C
And I feel like letting go
      Em        D       C
And I feel like letting go

[2:47]

|---------------2-------0-------0-------------------------0----|
|-------5---------3-------0-------0-----1-----------1-----0----|
|---------5---------2-------0-------0-----0-----------0---0----|
|---5-------5---------4-------2-------2-----0h2-2S3-----2-2----|
|-0---3---------------2-------2-------3-----3---3-3-------2----|
|-------------2-------0-------0---------------------------0----|

C      D  E         C    Dm Em
You're my favourite thing
C      D  E         C    Dm Em
You're my favourite thing
C      D  E         C    Dm Em
You're my favourite thing       
C      D  E
You're my favourite
    C          Em 
the one that I love
    C          Am  C                
the one so I'd die__ for your
Am  C 
Die__ for your love


then on love play with daniels voice the same chords

|-------------------|----------------------------|
|-------------------|----------------------------|
|-------------------|-----------------------7----|
|-2-4-2-4-5-8-4-7-2-|-4-2-4-5-8-4-7-2-4-5-7-7----|
|-2-4-2-4-5-8-4-7-2-|-4-2-4-5-8-4-7-2-4-5-7-5----|
|-0-2-0-2-3-6-2-5-0-|-2-0-2-3-6-2-5-0-2-3-5------|


|----------|
|----------|
|----------|
|-8-4-7----|
|-8-4-7----|
|-6-2-5----|
Comments