Silverchair - My Favourite Thing Chords & Tabs

 

My Favourite Thing Chords & Tabs

Silverchair Chords & Tabs

Version: 1 Type: Tab 0 ratings
1 star 2 stars 3 stars 4 stars 5 stars
comments

My Favourite Thing Tab

   
#----------------------------------PLEASE NOTE---------------------------------#
#This file is the author's own work and represents their interpretation of the #
#song. You may only use this file for private study, scholarship, or research. #
#------------------------------------------------------------------------------#

Song: My Favourite Thing
Band: Silverchair
Album: Diorama
tabbed by arlen b, 04/11/03
website: http://www.geocities.com/kingoftheeskimos

standard tuning

chords used:
  C  D5/A  Esus4 E   Em   Am
e-0---------0----0----0----0-------------------------------------------
B-1----3----0----0----0----1-------------------------------------------
G-0----2----2----1----0----2-------------------------------------------
D-2----0----2----2----2----2-------------------------------------------
A-3----0----2----2----2----0-------------------------------------------
E-----------0----0----0------------------------------------------------

intro/verse:
  C         D5/A      Em
e----------------------------------------------------------------------
B-----1---------3-------------------0----------------------------------
G---0---0-----2---2-------0-----------0--------------------------------
D-2-2-----2-0-0-----0---2---4-3-2-2-----2------------------------------
A-3-3-------0-0-------2-2---------2------------------------------------
E---------------------0-0---------0------------------------------------
got my fever down 
 
  Bb        C         Em
e-----1---------3------------------------------------------------------
B---3---3-----5---5-----------------0----------------------------------
G---3-----3---5-----5-----0-----------0--------------------------------
D-3-3-------5-5---------2---4-3-2-2-----2------------------------------
A-1-1-------3-3-------2-2---------2------------------------------------
E---------------------0-0---------0------------------------------------
...won't strain all the silt from my eyes

 C         D5/A      Em
e----------------------------------------------------------------------
B-----1---------3-------------------0----------------------------------
G---0---0-----2---2-------0-----------0--------------------------------
D-2-2-----2-0-0-----0---2---4-3-2-2-----2------------------------------
A-3-3-------0-0-------2-2---------2------------------------------------
E---------------------0-0---------0------------------------------------
bleach the green from the pasturest
[ Tab from: http://www.guitartabs.cc/tabs/s/silverchair/my_favourite_thing_tab.html ]
  Bb        A         Em        F
e----------------------------------------------------------------------
B-----3---------2------------------------------------------------------
G---3---3-----2---2-------0---------2----------------------------------
D-3-3-----3-2-2-----2---2---2-----3---3--------------------------------
A-1-1-------0-0-------2-2-----2-3-3-----3------------------------------
E---------------------0-0-------1-1------------------------------------
straight from the vines, refusal to shine


chorus:

you're my    favour-ite thing



verse 2:

piano part:
blind the deafened moon, stimulate the tombs of angels

Bb        A         Em        F
e----------------------------------------------------------------------
B-----3---------2------------------------------------------------------
G---3---3-----2---2-------0---------2----------------------------------
D-3-3-----3-2-2-----2---2---2-----3---3--------------------------------
A-1-1-------0-0-------2-2-----2-3-3-----3------------------------------
E---------------------0-0-------1-1------------------------------------
i'll open my heart, won't fall apart...

 
so don't fall apart


then another chorus, as before, with Am-C instead of the last Em


bridge:
     C         D/F#      Em7                 C
e----------------------------------------------------------------------
B--------1---------3---------3---------3---------1---------1-----------
G--0---0---0-----2---2---------0---------0-----0-------------0---------
D----2-2-----2---0-----0---2-----2---2-----2-2-2---0h2-2h3-----2-------
A-0--3-3-----------------2-2-------2-2-------3-3---3-3-3-3-------------
E--------------2---------0-0-------0-0---------------------------------

  Em
e----------------------------------------------------------------------
B-----0---------0------------------------------------------------------
G-------0---------0----------------------------------------------------
D---2-----2---2-----2--------------------------------------------------
A-2-2-------2-2--------------------------------------------------------
E-0-0-------0-0--------------------------------------------------------


then another chorus as before, until:

   
...the one so i'd diiie for your - diiie for your love


and on "love", the outro riff begins:
  Em           G
e-0------------3------------------------------------------------------
B-0------------3--/11-7--10-------------------------------------------
G-0--/11-9--7--0------------------------------------------------------
D-2------------0--/8--4--7--------------------------------------------x2
A-2--/9--7--5--2------------------------------------------------------
E-0------------3------------------------------------------------------

  Em             G   Bb F#m  Am
e-0--------------3---1---2---0-----------------------------------------
B-0--------------3---3---2---1-----------------------------------------
G-0--/11-12--14--0---3---2---2-----------------------------------------
D-2--------------0---3---4---2-----------------------------------------
A-2--/9--10--12--2---1---4---0-----------------------------------------
E-0--------------3-------2---------------------------------------------
Comments