Silverchair - Miss You Love Chords & Tabs

 

Miss You Love Chords & Tabs

Silverchair Chords & Tabs

Version: 1 Type: Bass Tab 0 ratings
1 star 2 stars 3 stars 4 stars 5 stars
comments

Miss You Love Bass Tab

SILVERCHAIR - MISS YOU LOVE

Tab by Felix Pflaum 

Bass 11 bars rest
G----------------------------------------------------------------
D----------------------------------------------------------------
A----------------------------------------------------------------
E-----------------------------------5------5--3--2----0---------

G--------------------------------------------------------------------
D--2----------------------0-------------------------------------------
A------2---------0--------------------------------------------------
E----------3----------3---------------------------------------------------

G--------------------------------------------------------------------------------\
D--------------------------------------------------------------------------------\  
A---3---3-3-----3-5-----------------0--3---5----5------3-555----3-555-------\  play 2x
E------------------------3----3-3------------------------------------------------\

G----------------------------------------------------------------------------------
D--------------------------5-3-----------------------------------------------------
A---3----35-------------------5----3----35----------------------------------------
E-----------------3---------------------------3----5----5----5-----5-3-2-0-------
[ Tab from: http://www.guitartabs.cc/tabs/s/silverchair/miss_you_love_btab.html ]
G------------------------------------------------------------------------------------
D---2---------------------------------------------------------------------------------
A-------2----------0-------0-----0------0-3-5-3-5---5---5----1-----3-------------
E------------3-----------------------------------------------------------------------

G--------------------------------------------------------------------------------------
D---------------------------------------------------------------------------------------
A---------------------------------------------------------------------------------------
E----2----2--2--2----0---0---0---0---2--2---2--2----0--0--0--0-------------------

G----------------------------
D------0---------------------- play2x
A------------0----------------
E------------------0----------

*semi heavy part
G------------------------------------------------------------------------------\
D------------------------------------------------------------------------------\
A---3----3---3----3-----------------------------5----5----5-----5-----------\ Play 2x
E--------------------------3----3----3----3-----------------------------------\

G------------------------------------------------------------------------------------
D-----------------------------------7--5---------------------------------------------
A---3-----------------------------------------5---5-----3-555---3-555------------
E--------------------------3----------------------------------------------------------

G-------------------------------------------------------------------------------------
D--------------------------------------------------------------------------------------
A---3--3----3----3--------------------------5---5---5-----5------5---5-----5---5---
E-------------------------3--3-----3--3-----------------------------------------------

G------------------------------
D-----0------------------------x2
A-----------0------------------
E----------------0-------------
Comments