Silverchair - Minor Threat Chords & Tabs

 

Minor Threat Chords & Tabs

Silverchair Chords & Tabs

Version: 1 Type: Bass Tab 0 ratings
1 star 2 stars 3 stars 4 stars 5 stars
comments

Minor Threat Bass Tab

   
#----------------------------------PLEASE NOTE---------------------------------#
#This file is the author's own work and represents their interpretation of the-#
#song. You may only use this file for private study, scholarship, or research.-#
#------------------------------------------------------------------------------#

Silverchair - Minor Threat

[ Tab from: http://www.guitartabs.cc/tabs/s/silverchair/minor_threat_btab.html ]
Verse Riff
 
G---------------------------------
D---------------------------------
A-5-5-5-5-0-0-0-0-7-7-7-7-3-3-----
E-----------------------------3-3-
 
Pre-chorus Riff
 
G-----------------------------------------------------
D-----------------------------------------------------
A-2-2-2-2---------2-2-2-2-5-0-5-0-2-2-2-2---------2-2-
E---------3-3-3-3-------------------------3-3-3-3-----
 
Chorus ("Were just a minor threat" bit")
 
G---------------
D---------------
A-5-5-0-0h7-0h3-
E---------------
 
End
 
G---
D---
A-5-
E---

================================================================================
Comments