Silverchair - Madman Chords & Tabs

 

Madman Chords & Tabs

Silverchair Chords & Tabs

Version: 3 Type: Tab 0 ratings
1 star 2 stars 3 stars 4 stars 5 stars
comments

Madman Tab

Tempo: 130; 4/4 time

fig 1     
                                    
e|-------------------------------------------------|
b|-------------------------------------------------|
g|*-----------------------------------------------*| play 4 times
d|*-0--------------------0-----0--0---------------*|
a|--x--------------------x-----x--x----------------|
d|--0-----0--0--0--0--0--0-----0--0-----0--0--0--0-|
                                                  
fig 2
                                                                                                 
|------------------------------------------------|
|------------------------------------------------|
|*-----------------------------------------------|
|*-----------------------------------------------|
|-2--0--2--0--2--3--0--2-----0--2--0--2--3--0----|
|-2--0--2--0--2--3--0--2-----0--2--0--2--3--0----|
                                                  

                                                  
|------------------------------------------------|
|------------------------------------------------|
|------------------------------------------------|
|------------------------------------------------|
|-2--0--2--0--2--3--0--2-----0--2--0--2--3--0----|
|-2--0--2--0--2--3--0--2-----0--2--0--2--3--0----|
                                                  

                                                  
|------------------------------------------------|
|------------------------------------------------|
|------------------------------------------------|
|------------------------------------------------|
|-2--0--2--0--2--3--0--2-----0--2--0--2--3--0----|
|-2--0--2--0--2--3--0--2-----0--2--0--2--3--0----|
                                                  
[ Tab from: http://www.guitartabs.cc/tabs/s/silverchair/madman_tab_ver_3.html ]
                                                  
|------------------------------------------------|
|------------------------------------------------|
|-------------------------------------1-----1---*| play 2 times
|-----------------------------------------------*|
|-2--0--2--0--2--3--0--2-----0--2--0--4-----4----|
|-2--0--2--0--2--3--0--2-----0--2--0-------------|
                                                  
fig 3
                                                  
g|------------------------------------------------| \
u|------------------------------------------------|  |
i|-----------------------------------------------*|  |
t|-0--------------------0-----0--0---------------*|  |
.|-x--------------------x-----x--x----------------|  |
1|-0-----0--0--0--0--0--0-----0--0-----0--0--0--0-|  |
                                                  |  |
g|------------------------------------------------|  |
u|-3--3--3--3--3--3--3--3--3--3--3--3--3--3--3--3-|  |
i|-x--x--x--x--x--x--x--x--x--x--x--x--x--x--x--x*|  |play 4 times
t|-0--0--0--0--0--0--0--0--0--0--0--0--0--0--0--0*|  |
.|------------------------------------------------|  |
2|------------------------------------------------|  |
                                                  |  |
g|-0----------------------------------------------|  |
u|-3----------------------------------------------|  |
i|-2---------------------------------------------*|  |
t|-0---------------------------------------------*|  |
.|------------------------------------------------|  |
3|------------------------------------------------| /  

                                                  
they are the main figures, i'll post more updates soon.
                                                  

Comments