Silverchair - Madman Chords & Tabs

 

Madman Chords & Tabs

Silverchair Chords & Tabs

Version: 1 Type: Chords 0 ratings
1 star 2 stars 3 stars 4 stars 5 stars
comments

Madman Chords

   
#----------------------------------PLEASE NOTE---------------------------------#
#This file is the author's own work and represents their interpretation of the #
#song. You may only use this file for private study, scholarship, or research. #
#------------------------------------------------------------------------------#
MADMAN by silverchair
tabbed by Evan (engdm@ix.netcom.com

Drop D tunning
 
This is a easy song of frogstomp.  It's really just one riff played fast and
slow.

didn't include strumming but its not hard to figure out.

intro
repeat this a few times
E----------------------------
B-----------------------------
G-----------------------------
D---------------------------------
A---12---0---12-12-12--0--
D---12---0---12-12-12 --0-


Main riff(play fast at parts, slow on other parts.)
E-----------------------------------------------------------
B----------------------------------------------------------
G----------------------------------------------------------
D----------------------------------------------------------
A--2--0--2--0--2--3--0--2------0--2--0--2--3--0--
D--2--0--2--0--2--3--0--2------0--2--0--2--3--0---

That's about it. mail me with any questions or comments at
endgm@ix.netcom.com
Evan



UNDECIDED by silverchair
Transcibed by Braamo (bpsmith@socs.uts.edu.au)

The boys may tune their guitars down a step
ie. D-A-F-C-G-D - but that's too much of A bugger
when you can "get away" with normal tuning:


There are various rhythms to the main riff in the song,
but if you stick by this and then adapt it to the 
drumbeat, you won't go wrong:

E-----------------------------|
B-----------------------------|
G---1__2--1--*----------*-----|  * = silence
D---2__3--2--*--2--0--2-*-----|  _ = slide
A---2__3--2--*--2--0--2-*-----|
E-----------------------------|


Change at end of verse:

G A Bb

-----
Chorus:
[ Tab from: http://www.guitartabs.cc/tabs/s/silverchair/madman_crd.html ]
E  G  F   Bb E                  G          D    A
   
(Undecided, can't make up their mi-i-i-i-ind ect)



-----

Bridge:

F# / / / B / A E    x 4

-----

End:

E---------------------------|
B---------------------------|
G---------------------------|  x 3
D--2--0--2--0--2--3--2--0---|
A--2--0--2--0--2--3--2--0---|then E chord to finish
E---------------------------|


Braamo

(bpsmith@socs.uts.edu.au)

----------------------------------------------------------------------------------------------



CICADA by silverchair
Transcribed by Braamo (bpsmith@socs.uts.edu.au)


Introduction:

E / G A /
Change: C D


Verse:

E F# G A    *
Change: E D# D C# C D

* = sometimes these chords are played as a baseline only.


Chorus:

  E  D  A  E  G  A
   It's like a civil war ...  GROWING UP


Solo chords:

A / C D /    x 4
Bb / B / C / D /then intro chords.


Solo:

E-------------------------------------------|
B-------------------------------------------|
G-------------------------------------------|
D--12^--10------------------------------10--|
A-----------12--10--12^---10--10--(12)------|
E-------------------------------------------|

E------------------------------------------|
B------------------------------------------|
G------------------------------------------|
D--12^-12^-12^-12^-10----------------------|
A---------------------(12)-10-12-----------|
E------------------------------------------|

E--12^~~~~~~~~~~~~~~-----------------------|
B--------------------14-12-14--------------|
G-----------------------------14-12-14-----|
D------------------------------------------|
A------------------------------------------|
E------------------------------------------|

E------------------------------------------|
B------------------------------------------|
G------------------------------------------|
D--------------------12-(14)-12------------|
A--10-(12)-10--12---------------14-13^-----|
E------------------------------------------|

^ = bend
~~ = repeated


Braamo
(bpsmith@socs.uts.edu.au
Comments