Silverchair - Love Your Life Chords & Tabs

 

Love Your Life Chords & Tabs

Silverchair Chords & Tabs

Version: 1 Type: Tab 0 ratings
1 star 2 stars 3 stars 4 stars 5 stars
comments

Love Your Life Tab

   
#----------------------------------PLEASE NOTE---------------------------------#
#This file is the author's own work and represents their interpretation of the #
#song. You may only use this file for private study, scholarship, or research. #
#------------------------------------------------------------------------------#

Song: Luv Your Life
Band: Silverchair
Album: Diorama
tabbed by arlen b, 04/11/03
website: http://www.geocities.com/kingoftheeskimos

standard tuning

chords used:
  C  Cmaj7  F    G    C#   F#   B    Bb   Eb
e-0----0----1---------4----2----2----1----6----------------------------
B-1----0----1----3----6----2----4----3----8----------------------------
G-0----0----2----0----6----3----4----3----8----------------------------
D-2----2----3----0----6----4----4----3----8----------------------------
A-3----3----3----2----4----4----2----1----6----------------------------
E-----------1----3---------2-------------------------------------------

intro:
C                       Cmaj7      F
you don't know the truth     and i love your life  x2
[ Tab from: http://www.guitartabs.cc/tabs/s/silverchair/love_your_life_tab.html ]
verse:
  C      Fm C      Fm C      Fm F
e----------------------------------------------------------------------
B-1------1--1------1--1------1--1--1-1-1--1-1/3--3-3/5-----------------
G-0------1--0------1--0------1--2--0-0-0--0-0-0--0-0-0-----------------
D-2------3--2------3--2------3--3--------------------------------------
A-3------3--3------3--3------3--3--3-3-3--3-3/5--5-5/7-----------------
E----------------------------------------------------------------------
thrust the candle into the dark of your disease ...

"doo doo" part:
  G   Am F   C
e-3---5--1---0---------------------------------------------------------
B-3---5--1---1---------------------------------------------------------
G-4---5--2---0---------------------------------------------------------
D-5---7--3---2---------------------------------------------------------
A-5---7--3---3---------------------------------------------------------
E-3---5--1-------------------------------------------------------------
you don't know the truth     and i love your life  x3


bridge:
flinch against the fire but this ain't winter, and i'm all by myself


riff:
e----------------------------------------------------------------------
B----------------------------------------------------------------------
G----------------------------------------------------------------------
D-5/7-5-3--------------------------------------------------------------
A----------------------------------------------------------------------
E-3/5-3-1--------------------------------------------------------------  
you don't know the truth
you don't know the truth

end riff (w/ orchestra):
e----------------------------------------------------------------------
B----------------------------------------------------------------------
G----------------------------------------------------------------------
D-4-5-6-3-4-5----------------------------------------------------------
A----------------------------------------------------------------------
E-2-3-4-1-2-3----------------------------------------------------------
Comments