Silverchair - London's Burning Chords & Tabs

 

London's Burning Chords & Tabs

Silverchair Chords & Tabs

Version: 1 Type: Tab 0 ratings
1 star 2 stars 3 stars 4 stars 5 stars
comments

London's Burning Tab

   
#----------------------------------PLEASE NOTE---------------------------------#
#This file is the author's own work and represents their interpretation of the #
#song. You may only use this file for private study, scholarship, or research. #
#------------------------------------------------------------------------------#

rtist: Silverchair
Song: Londons Burning (Clash Cover)
Album: Anthem for the Yr 2000 Single
Tabbed By: Simon Robson.


Standard tuning. 

[0:00]              x4
e||-----------------||
B||-----------------||
G||-o-------------o-||
D||-o-------------o-||
A||----5-5-5-5-4----||
E||----3-3-3-3-3----||
London's burning!  (x4)

[0:43]
      G5      F5      C5      D5         x4
||---------------------------------------||
||---------------------------------------||
||-o------------------5-5-5-5-7-7-7-7--o-||
||-o--5-5-5-5-3-3-3-3-5-5-5-5-7-7-7-7--o-||
||----5-5-5-5-3-3-3-3-3-3-3-3-5-5-5-5----||
||----3-3-3-3-1-1-1-1--------------------||

[0:54]
|-3-3-3-3-|
|-3-3-3-3-|
|---------|
|---------|
|---------|
|---------|
All across the town, all across the night...

[ Tab from: http://www.guitartabs.cc/tabs/s/silverchair/londons_burning_tab.html ]
[1:05]
      G5      F5      C5      D5         x4
||---------------------------------------||
||---------------------------------------||
||-o------------------5-5-5-5-7-7-7-7--o-||
||-o--5-5-5-5-3-3-3-3-5-5-5-5-7-7-7-7--o-||
||----5-5-5-5-3-3-3-3-3-3-3-3-5-5-5-5----||
||----3-3-3-3-1-1-1-1--------------------||
London's burning ...

[1:16]
|--------------|
|--------------|
|--------------|
|-8h9----11h12-|
|--------------|
|--------------|
I'm up and down the Westway...

[1:27]
      G5      F5      C5      D5         x4
||---------------------------------------||
||---------------------------------------||
||-o------------------5-5-5-5-7-7-7-7--o-||
||-o--5-5-5-5-3-3-3-3-5-5-5-5-7-7-7-7--o-||
||----5-5-5-5-3-3-3-3-3-3-3-3-5-5-5-5----||
||----3-3-3-3-1-1-1-1--------------------||
London's burning .........................

Now I'm in the subway ...

[1:50]
      G5      F5      C5      D5         x4
||---------------------------------------||
||---------------------------------------||
||-o------------------5-5-5-5-7-7-7-7--o-||
||-o--5-5-5-5-3-3-3-3-5-5-5-5-7-7-7-7--o-||
||----5-5-5-5-3-3-3-3-3-3-3-3-5-5-5-5----||
||----3-3-3-3-1-1-1-1--------------------||
London's burning with boredom now
London's burning dial 99999

[2:02] Guitar solo

[2:23]             x4
||-----------------||
||-----------------||
||-o-------------o-||
||-o-------------o-||
||----5-5-5-5-4----||
||----3-3-3-3-3----||
London's burning! (x4)
Comments