Silverchair - Lie To Me Chords & Tabs

 

Lie To Me Chords & Tabs

Silverchair Chords & Tabs

Version: 1 Type: Tab 0 ratings
1 star 2 stars 3 stars 4 stars 5 stars
comments

Lie To Me Tab

Lie to Me - silverchair

This is an easy song to play as well as a good song to listen to.  

Note, I made a note on an emotion sickness tab about someone taking tabs from chairpage.com
and posting them here and claiming it as their own work, i just want to add two more songs
to the listen and they are Black Tangled Heart and Dearest Helpless.  These two songs were
also taken from mike stramaglio and denis bourdon at chairpage.com, they are not the acclaimed
authors work.  Comments - JesusPnkr@aol.com

Standard Tuning

^ - bend

Intro
e ---------------------------------------
b ---------------------------------------
g ---------------------------------------
d ---------------------------------------
a --3----5-----6-----0----3--------------
e --3----3-----4-----0----1--------------  repeat 4 times
[ Tab from: http://www.guitartabs.cc/tabs/s/silverchair/lie_to_me_tab.html ]
e ---------------------------------------
b ---------------------------------------
g ---------------------------------------
d ---------------------------------------
a --3---------5-------6---------3--------
e --3---------3-------4---------1--------
   Gonna be a liar?   Lie to me!            play 4 times
e ---------------------------------------
b ---------------------------------------
g ---------------------------------------
d ---------------------------------------
a -3------5----6--3----3---5--6--5--3--5-
e -3------3----4--1----3---3--4--3--1--3-
    Yeah!
Guitar Solo
e ---------------------------------------
b ---------------------------------------
g ---------------------------------------
d ---------------------------------------
a ---3------x-x---x-x--------------------
e ---3------x-x---x-x--x/-x/--x/--x/-x/--
Outro
e ---------------------------------------
b ---------------------------------------
g ---------------------------------------
d ---------------------------------------
a -3--5--6--3----------3-5-3-5-3-5-------
e -3--3--4--1----------3-3-4-3-4-3-3^full
            Lie to me   (play 6 times)
Comments