Silverchair - Leave Me Out Chords & Tabs

 

Leave Me Out Chords & Tabs

Silverchair Chords & Tabs

Version: 3 Type: Tab 0 ratings
1 star 2 stars 3 stars 4 stars 5 stars
comments

Leave Me Out Tab

Tuning Dropped D (dadgbe)

intro
E|--------------------------------------------------
B|--------------------------------------------------
G|--------------------------------------------------
D|-3-3-3-3--3-3-3-3--5-5-5-5--5-5-5-5---------------
A|-1-1-1-1--1-1-1-1--3-3-3-3--3-3-3-3---------------
D|------------------------------------0-------------

verse
E|--------------------------------------------------
B|--------------------------------------------------
G|--------------------------------------------------
D|-0-0--0-5-0-3----7-6-5----------------------------
A|-0-0--0-5-0-3----5-4-3----------------------------
D|-0-0--0-5-0-3-00----------------------------------
       PM       PM
[ Tab from: http://www.guitartabs.cc/tabs/s/silverchair/leave_me_out_tab_ver_3.html ]
bridge
E|--------------------------------------------------
B|--------------------------------------------------
G|-5-5-5-5--5-5-5-----------------------------------
D|-5-5-5-5--5-5-5--5-5-5-0-3-0-2/3------------------
A|-3-3-3-3--3-3-3--5-5-5-0-3-0-2/3------------------
D|-----------------5-5-5-0-3-0-2/3--0---------------

chorus
E|--------------------------------------------------
B|--------------------------------------------------
G|-7-7-7-7-7--4-4-----------------------------------
D|-7-7-7-7-7--4-4--3-0--3/5-0-----------------------
A|-5-5-5-5-5--2-2--3-0--3/5-0-----------------------
D|-----------------3-0--3/5-0-----------------------

short solo
E|--------------------------------------------------
B|-10-10--10--12b(1/2)-p10--12b(1/2)-10-9-8--------- 
G|--------------------------------------------------
D|--------------------------------------------------
A|--------------------------------------------------
D|--------------------------------------------------
Comments