Silverchair - Leave Me Out Chords & Tabs

 

Leave Me Out Chords & Tabs

Silverchair Chords & Tabs

Version: 1 Type: Bass Tab 0 ratings
1 star 2 stars 3 stars 4 stars 5 stars
comments

Leave Me Out Bass Tab

Leave Me Out - Silverchair
Tabbed by: Goose (gowse@bigfoot.com)
 
"Dropped - D Tuning"
Tune "E" String down 1 step to "D"

   |--------------------------------------gtr-----------------------------------------------|
   |--------------------------------------only----------------------------------------------|
   |1-1-1-1-1-1-1-1--3-3-3-3-3-3--3/5-5-5-here-5-4-3---------------5-4-3---------------5-4-3|
   |-------------------------------------------------0-0-0-5-0-3-0-------0-0-0-5-0-3-0------|

   |----------------------------------------------------------------------------------------|
   |----------------------------------------------------------------------------------------|
   |---------------5-4-3----------------5-4-3-------------------5-4-3------------------5-4-3|
   |0-0-0-5-0-3-0--------0-0-0-5-0-3-0--------0-0---0-5-0-3--0---------0-0--0-5-0-3-0-------|

   |----------------------------------------------------------------------------------------|
   |----------------------------------------------------------------------------------------|
   |-----------------5-4-3---------------------5-4-3----3-3-3-3-3-3-3-3---------------------|
   |0-0--0-5-0-3--0-----------0-0--0-5-0-3--0---------------------------5-5-5----0-3-0-3-5--|

   |----------------------------------------------------------------------------------------|
   |----------------------------------------------------------------------------------------|
   |---------------5-4-3----------------5-4-3-------------------5-4-3------------------5-4-3|
   |0-0-0-5-0-3-0--------0-0-0-5-0-3-0--------0-0---0-5-0-3--0---------0-0--0-5-0-3-0-------|

   |----------------------------------------------------------------------------------------|
   |----------------------------------------------------------------------------------------|
   |3-3-3-3-3-3-3-3-------------------5-5-5-5-5-X-2--------------5-5-5-5-5-X-2--------------|
   |----------------5-5-5--0-3-0-3-5----------------3-0-3-5-5-0-----------------3-0-3-5-5-0-|

   |----------------------------------------------------------------------------------------|
   |----------------------------------------------------------------------------------------|
   |5-5-5-5-5-X-2-------------5-5-5-5-5-X-2-------------------------------------------------|
   |--------------3-0-3-5-5-0---------------3-0-3-/-5-5-5--5-/-7-7-7-7-7-7-7-7--6-6-6-6--5-3|

   |----------------------------------------------------------------------------------------|
   |----------------------------------------------------------------------------------------|
   |---------------5-4-3----------------5-4-3-----------------5-4-3--------------------5-4-3|
   |0-0--0-5-0-3-0-------0-0--0-5-0-3-0-------0-0--0-5-0-3-0---------0-0---0-5-0-3-0--------|
[ Tab from: http://www.guitartabs.cc/tabs/s/silverchair/leave_me_out_btab.html ]
   |----------------------------------------------------------------------------------------|
   |0-0--0-5-3-/-12--11--10---0-0--0--5--3--/--12--11--10-----0-0--0--5--3---/---12--11--10-|
   |----------------------------------------------------------------------------------------|
   |----------------------------------------------------------------------------------------|
   |----------------------------------------------------------------------------------------|
   |0-0--0-5-3-/-12--11--10-----------------------------------------------------------------|
   |-------------------------5-5-5-5-5--X--2------------------5-5-5-5-5--X--2---------------|
   |-------------------------------------------3-0-3-5-5-0---------------------3-0-3-5-5----|

   |----------------------------------------------------------------------------------------|
   |----------------------------------------------------------------------------------------|
   |5-5-5-5-5-X-2-------------5-5-5-5-5-X-2-------------------------------------------------|
   |--------------3-0-3-5-5-0---------------3-0-3-/-5-5-5--5-/-7-7-7-7-7-7-7-7--6-6-6-6--5-3|

   |----------------------------------------------------------------------------------------|
   |----------------------------------------------------------------------------------------|
   |---------------------------6----------------------------------------------------------6-|
   |0--0-0--5-0-0-3-0-0-5-0-0----0-0-0-2-0-0-2-0-0-2--0-0-3----0--0-0--5-0-0-3-0-0-5-0-0----|

   |----------------------------------------------------------------------------------------|
   |----------------------------------------------------------------------------------------|
   |----------------------------------------------------------------------------------------|
   |0-0-0--2-0-0-2-0-0-2--0-0-3--3-/-5-5-5-5-5-5-5-----3-/-5-5-5-5-5-5-5---1-/-3-3-3-3-3-3-3|

   |----------------------------------------------------------------------------------------|
   |----------------------------------------------------------------------------------------|
   |----------------------------------------------------------------------------------------|
   |1/3-3-3-3-3-3-3---3/5-5-5-5-5-5-5---3/5-5-5-5-5-5-5----5/6-6-6-6-6-6-6----6/8-8-8-8-7-6-|

   |---------------------|------------------------------------------------------------------|
   |Long-Pause-----------|------------------------------------------------------------------|
   |with-wind-Effects--- |-5-5-5-5-5--X--2-----------------5-5-5-5-5--X--2------------------|
   |---------------------|-------------------3-0-3-5-5-0--------------------3-0-3-5-5-0-3---|

   |----------------------------------------------------------------------------------------|
   |----------------------------------------------------------------------------------------|
   |5-5-5-5-5-X-2--------------5-5-5-5-5-X-2------------------------------------------------|
   |--------------3-0-3-5-5-0-----------------3-0-3-5-5-5-/-7-7-7-7-7-7-7-7---6-6-6--5--3-0-|



Comments