Silverchair - Learn To Hate Chords & Tabs

 

Learn To Hate Chords & Tabs

Silverchair Chords & Tabs

Version: 1 Type: Tab 0 ratings
1 star 2 stars 3 stars 4 stars 5 stars
comments

Learn To Hate Tab

Learn to Hate(Freak Show) - silverchair

Drop D Tuning

Song played with heavy distortion

x - pick muted string
/ - slide

Intro/Verse
e ----------------------------------------------------------------
b ----------------------------------------------------------------
g ----------------------10--10--10--10-/-12--12--12--12-----------
d ----------------------10--10--10--10-/-12--12--12--12--0--8--7--
a --x--x--x--x---0--0----8---8---8---8-/-10--10--10--10--0--0--0--
d --x--x--x--x---0--0----8---8---8---8-/-10--10--10--10--0--0--0--
[ Tab from: http://www.guitartabs.cc/tabs/s/silverchair/learn_to_hate_tab.html ]
e ----------------------------------------------------------------
b ----------------------------------------------------------------
g -----------8--8--8--8-------------------------------------------
d --7--7--7--8--8--8--8-------------------------------------------
a --0--0--0--6--6--6--6--0----------------------------------------
d --0--0--0--6--6--6--6--0----------------------------------------
Chorus
e ----------------------------------------------------------------
b ----------------------------------------------------------------
g ---------------------------------------------------11-11-11-11--
d --4-4-4-4-4-4-4-4-4-/-6-6-6-6-6-6-6--0-0-0-0-0-0-0-11-11-11-11--
a --4-4-4-4-4-4-4-4-4-/-6-6-6-6-6-6-6--0-0-0-0-0-0-0--9--9--9--9--
d --4-4-4-4-4-4-4-4-4-/-6-6-6-6-6-6-6--0-0-0-0-0-0-0--9--9--9--9-- repeat
Outro - 2 Guitars
Gtr. 1
e ----------------------------------------------------------------
b --7-7-7-7-7-7-7-/-9-9-9-9-9-9-9-3-3-3-3-3-3-3-12-12-12-12-12----
g --6-6-6-6-6-6-6-/-8-8-8-8-8-8-8-2-2-2-2-2-2-2-11-11-11-11-11-10-
d --4-4-4-4-4-4-4-/-6-6-6-6-6-6-6-0-0-0-0-0-0-0--9--9--9--9--9-10-
a --------------------------------------------------------------8-
d --------------------------------------------------------------8-
Gtr. 2
e ----------------------------------------------------------------
b ----------------------------------------------------------------
g ----------------------------------------------------------------
d ------10---10-----------12--12----4---4-------8---8-------------
a ----8----8------------10------------5---5---6---6---------------
d --8------------8-/-10-----10----0---------6----------0----------

Comments or bitches - JesusPnkr@aol.com

I have the correct tabs to any silverchair song so if there is one you'd like,
email me and i will see if i can get it to you. enjoy!
Comments