Silverchair - Israels Son Chords & Tabs

 

Israels Son Chords & Tabs

Silverchair Chords & Tabs

Version: 5 Type: Tab 0 ratings
1 star 2 stars 3 stars 4 stars 5 stars
comments

Israels Son Tab

   
-------------------------------------------------------------------------------
			   ISRAEL'S SON - Silverchair
-------------------------------------------------------------------------------
Tabbed by: felipe del vecchio (lÝserkids)
Email: felipe@loserkids.com.br
I'm sure that this tab is 100% correct, i was look others tabs but i don't find
some perfect, all others tabs was left something. Have so fun!


Tuning: Drop E 2 D (just it)

Intro:
e|-----------------------------------------------------------------------|
B|-----------------------------------------------------------------------|
G|-----------------------------------------------------------------------|
D|--0---3x---after---3---------------------------------------------------|
A|--5----------------3---------------------------------------------------|
D|--0----------------3---------------------------------------------------|

Verse:
e|-----------------------------------------------------------------------|
B|-----------------------------------------------------------------------|
G|-----------------------------------------------------------------------|
D|-----------------------------------------------------------------------|
A|--0-0--3----3~ ---0--3----5~ ------------------------------------------|
D|--0-0--3h5--------0--3h5-----------------------------------------------|
pm  - -             -

e|-----------------------------|
B|-----------------------------|
G|-----------------------------|
D|-----------------------------|
A|--0-0--3----3~ --0-5-5-------|
D|--0-0--3h5-------0-5-5-------|

Chorus:
e|-----------------------------------------------------------------------|
B|-----------------------------------------------------------------------|
G|-----------------------------------------------------------------------|
D|-----------------------------------------------------------------------|
A|--0-0--5--3--0--2--3---------------------------------------------------|
D|--0-0--5--3--0--2--3---------------------------------------------------|
pm  - -        -

e|-----------------------------|
B|-----------------------------|
G|-----------------------------|
D|-----------------------------|
A|--1--6-----------------------|
D|--1--6-----------------------|
[ Tab from: http://www.guitartabs.cc/tabs/s/silverchair/israels_son_tab_ver_5.html ]
Interlude:
e|-------------------------x-----------x---------------------------------|
B|------<7>--<7>------<7>----------<7>---<7>-----------<7>--x\x\---------|
G|--0---<7>--<7>--<7>--------------<7>---<7>-<7>-------<7>---------------|
D|--0----------------------------------------<7>-<5>---------------------|
A|--0-------------------------12/----------------<5>---------------------|
D|-----------------------------------------------------------------------|

e|----------------------------|
B|----------------------------|
G|----------------------------|
D|--0--x\x/-------------------|
A|--0--x\x/-------------------|
D|----------------------------|

Outro:
e|-----------------------------------------------------------------------|
B|-----------------------------------------------------------------------|
G|-----------------------------------------------------------------------|
D|-----------------------------------------------------------------------|
A|--3--2--1--------------------------------------------------------------|
D|--3--2--1--------------------------------------------------------------|

Verse 2:
e|-----------------------------------------------------------------------|
B|-----------------------------------------------------------------------|
G|-----------------------------------------------------------------------|
D|-----------------------------------------------------------------------|
A|--0-0-5-3-0-----3~-5---------------------------------------------------|
D|--0-0-5-3-0-3h5----5---------------------------------------------------|
pm  - -     -

e|----------------------------|
B|----------------------------|
G|----------------------------|
D|----------------------------|
A|-0-0-5-3-0------2h3p2-0-----|
D|-0-0-5-3-0-3h5--------------|


End:
e|-----------------------------------------------------------------------|
B|---------------<7>-----------------------------------------------------|
G|---------------<7>-----------------------------------------------------|
D|--0---------------------------0----------------------------------------|
A|--0---------------------------0----------------------------------------|
D|--0---------------------------0----------------------------------------|


| /  slide up
| \  slide down
| h  hammer-on
| p  pull-off
| ~  vibrato
| +  harmonic
| x  Mute note
|<#> Natural Harmonic
===============================================================================
Comments