Silverchair - Israels Son Chords & Tabs

 

Israels Son Chords & Tabs

Silverchair Chords & Tabs

Version: 1 Type: Bass Tab 0 ratings
1 star 2 stars 3 stars 4 stars 5 stars
comments

Israels Son Bass Tab

Artist: Silverchair
Song: Isreal's Son (corrected version)


This song is in drop-D tuning.

Intro and Verses:

G------------------------|
D-----------------------*|
A---------3--------5----*|
D-0-0-3/5----0-3/5-------|

Chorus:
[ Tab from: http://www.guitartabs.cc/tabs/s/silverchair/israels_son_btab.html ]
G---------------------------------------------------------------|
D---------------------------------------------------------------|
A---------------------------------------------------------------|
D-0-0-5/3-0-2-3-0-0-5/3-0-2-3-0-0-5/3-0-2-3-1-1-1-1-5-5-5-5-----|


Just before Outtro and in some of the choruses the last part is 
repeated like this:

G-------------------|
D------------------*|
A------------------*|
D-1-1-1-1-5-5-5-5---|


Outtro:

G------------------------|
D-----------------------*|
A----------------3------*|
D-0-0-5-3--0-3-5----5----|


Original by: danceles@juno.com (Kevin S DiMichel)
Corrections by: jmulligan@idmail.com (John D Mulligan)
More Corrections by: Mouse013@aol.com (Melody Kiper)

Comments