Silverchair - Hollywood Chords & Tabs

 

Hollywood Chords & Tabs

Silverchair Chords & Tabs

Version: 1 Type: Tab 0 ratings
1 star 2 stars 3 stars 4 stars 5 stars
comments

Hollywood Tab

   
#----------------------------------PLEASE NOTE---------------------------------#
#This file is the author's own work and represents their interpretation of the #
#song. You may only use this file for private study, scholarship, or research. #
#------------------------------------------------------------------------------#

Artist: Silverchair.
Song: Hollywood (Unreleased).
Album: On there forth comin album(yet unknown)
and it is also on *Rock In Rio* Bootleg.
Tabbed By: Simon Robson.



Dropped D tuning one half step down (from low to high:Db-Ab-Db-Gb-Bb-Eb)

Tablature explanation
/ - slide 

[0:15] Intro             3x
eb|---|--------------------|-------------------|
Bb|---|--------------------|-------------------|
Gb|---|--------------------|-------------------|
Db|-0-|2-2-2-2-2-2-2-0-0-0-|2-2-2-2-77777766666|
Ab|-0-|2-2-2-2-2-2-2-0-0-0-|2-2-2-2-77777766666|
Db|-0-|2-2-2-2-2-2-2-0-0-0-|2-2-2-2-77777766666|

[0:30] Verse
eb|---------------------------------------------------|------------|
Bb|---------------------------------------------------|------------|
Gb|---------------------------------------------------|------------|
Db|-7-7-7-7-775-4-44-7-7-7-7-8-4-44-7-7-7-7-775-4-3-4-|-77777766666|
Ab|-7-7-7-7-775-4-44-7-7-7-7-8-4-44-7-7-7-7-775-4-3-4-|-77777766666|
Db|-7-7-7-7-775-4-44-7-7-7-7-8-4-44-7-7-7-7-775-4-3-4-|-77777766666|

In the middle of the side of the road


[0:45] Verse
eb|-------------------------------------------------------|
Bb|-------------------------------------------------------|
Gb|-------------------------------------------------------|
Db|-7-7-7-7-775-4-44-7-7-7-7-8-4-44-7-7-7-7-775-4-3-4-1-2-|
Ab|-7-7-7-7-775-4-44-7-7-7-7-8-4-44-7-7-7-7-775-4-3-4-1-2-|
Db|-7-7-7-7-775-4-44-7-7-7-7-8-4-44-7-7-7-7-775-4-3-4-1-2-|

I'm the first male lesbian

[1:00] Pre-chorus    3x
eb|--------------------|
Bb|--------------------|
Gb|--------------------|
Db|-3/7-7-7-7--3333535-|
Ab|-3/7-7-7-7--3333535-|
Db|-3/7-7-7-7--3333535-|

Easy, hopeless admiration of a Hollywood home
..
[ Tab from: http://www.guitartabs.cc/tabs/s/silverchair/hollywood_tab.html ]
[1:15] Chorus            3x
eb|---|--------------------|--------------|
Bb|---|--------------------|--------------|
Gb|---|--------------------|--------------|
Db|-0-|2-2-2-2-2-2-2-0-0-0-|2-2-2-2-2-2-2-|
Ab|-0-|2-2-2-2-2-2-2-0-0-0-|2-2-2-2-2-2-2-|
Db|-0-|2-2-2-2-2-2-2-0-0-0-|2-2-2-2-2-2-2-|

We're living in, we're living in a Hollywood home
.

[1:31]
eb|-----------------------------------------------|
Bb|-----------------------------------------------|
Gb|-----------------------------------------------|
Db|---7-7-----6-6-----5-5--5---7-7-7--3-3----3--3-|
Ab|--7---7---6---6-3-3----3-5-5---5--3---3-3--3---|
Db|-7-----7-6-----6-----------------3-----3-3--3--|

[1:39] Verse
eb|-------------------------------------------------------|
Bb|-------------------------------------------------------|
Gb|-------------------------------------------------------|
Db|-7-7-7-7-775-4-44-7-7-7-7-8-4-44-7-7-7-7-775-4-3-4-1-2-|
Ab|-7-7-7-7-775-4-44-7-7-7-7-8-4-44-7-7-7-7-775-4-3-4-1-2-|
Db|-7-7-7-7-775-4-44-7-7-7-7-8-4-44-7-7-7-7-775-4-3-4-1-2-|



[1:54] Guitar solo (will be posted later)

[2:09]
eb|--------------------------|
Bb|--------------------------|
Gb|--------------------------|
Db|-5-7--------5-7--------12-|
Ab|-3-5--------3-5-----------|
Db|--------------------------|

Heads tied to a rolling sculpture

[2:17] Pre-chorus    3x
eb|--------------------|
Bb|--------------------|
Gb|--------------------|
Db|-3/7-7-7-7--3333535-|
Ab|-3/7-7-7-7--3333535-|
Db|-3/7-7-7-7--3333535-|

[2:36]                                                2x
eb|-----------------------------------------------------|
Bb|-----------------------------------------------------|
Gb|-----------------------------------------------------|
Db|-2-2/3-2-2/3-2-2/3-2/3-2/3-2-2/3-2-2/3-2-2/3-2-0-0-0-|
Ab|-2-2/3-2-2/3-2-2/3-2/3-2/3-2-2/3-2-2/3-2-2/3-2-0-0-0-|
Db|-2-2/3-2-2/3-2-2/3-2/3-2/3-2-2/3-2-2/3-2-2/3-2-0-0-0-|

[2:52] Chorus         7x
eb|---------------------|--------------|
Bb|---------------------|--------------|
Gb|---------------------|--------------|
Db|-2-2-2-2-2-2-2-0-0-0-|2-2-2-2-2-2-2-|
Ab|-2-2-2-2-2-2-2-0-0-0-|2-2-2-2-2-2-2-|
Db|-2-2-2-2-2-2-2-0-0-0-|2-2-2-2-2-2-2-|

We're living in, we're living in a Hollywood home  2


[3:23]
eb|-----------------------------------------------|
Bb|-----------------------------------------------|
Gb|-----------------------------------------------|
Db|---7-7-----6-6-----5-5--5---7-7-7--3-3----3--3-|
Ab|--7---7---6---6-3-3----3-5-5---5--3---3-3--3---|
Db|-7-----7-6-----6-----------------3-----3-3--3--|

Now that you've come home
Comments