Silverchair - Freak Chords & Tabs

 

Freak Chords & Tabs

Silverchair Chords & Tabs

Version: 5 Type: Tab 0 ratings
1 star 2 stars 3 stars 4 stars 5 stars
comments

Freak Tab

   
!!!!!!!!!!!!!!!!!!!!!!!!!!!!!!!!!!!!!!!!!!!!!!!!!!!!!!!!!!!!!!!!!!!!!!!!!!!!!
                    TRANSCRIPTION BY MIKE STRAMAGLIO
                         (RYZA36A@prodigy.com)
         http://pages.prodigy.com/GenX/silver.htm  [The Faultline Page]
!!!!!!!!!!!!!!!!!!!!!!!!!!!!!!!!!!!!!!!!!!!!!!!!!!!!!!!!!!!!!!!!!!!!!!!!!!!!!
Song-Freak
Band-silverchair
Album-Freak Show
Transcribed by Mike Stramaglio (RYZA36A@prodigy.com)
corrections/help from Denis Bourdon
(http://members.aol.com/denbourdon/silverbsides.htm)
help on the interlude by Blake (mccartne@portal.connect.ab.ca)

**TUNING**
Dropped D

**KEY**
/-slide up
h-hammer on
11^(1/2)11-play 11th fret, bend up a half step, return to 11th fret
PM-palm mute
Tremelo picking-quickly strumming the notes

INTRO
E|--------------------------|--------------------------|
B|--------------------------|--------------------------|
G|-3----3-3--3--3--3--------|-3----3-3--3--3--3--------|
D|-2--0-2-2--2--2--2--0-0-0-|-2--0-2-2--2--2--2--0-0-0-|
A|-2--0-2-2--2--2--2--0-0-0-|-2--0-2-2--2--2--2--0-0-0-|
D|-2--0-2-2--2--2--2--0-0-0-|-2--0-2-2--2--2--2--0-0-0-|

E|--------------------------|--------------------------|
B|--------------------------|--------------------------|
G|--------------------------|--------------------------|
D|-2--0-2-2--2--2--2--0-0-0-|-2--0-2-2--2--2--2--0-0-0-|
A|-2--0-2-2--2--2--2--0-0-0-|-2--0-2-2--2--2--2--0-0-0-|
D|-2--0-2-2--2--2--2--0-0-0-|-2--0-2-2--2--2--2--0-0-0-|

VERSE
E|--------------------------|--------------------------|
B|--------------------------|--------------------------|
G|--------------------------|--------------------------|
D|-2--0-2-2--2--2--2--0-0-0-|-2--0-2-2--2--2--2--0-0-0-|
A|-2--0-2-2--2--2--2--0-0-0-|-2--0-2-2--2--2--2--0-0-0-|
D|-2--0-2-2--2--2--2--0-0-0-|-2--0-2-2--2--2--2--0-0-0-|

E|--------------------------|--------------------------|
B|--------------------------|--------------------------|
G|--------------------------|--------------------------|
D|-2--0-2-2--2--2--2--0-0-0-|-2--0-2-2--2--2--2--0-0-0-|
A|-2--0-2-2--2--2--2--0-0-0-|-2--0-2-2--2--2--2--0-0-0-|
D|-2--0-2-2--2--2--2--0-0-0-|-2--0-2-2--2--2--2--0-0-0-|

CHORUS

E|--------------------------------------------------------|
B|--------------------------------------------------------|
G|--------------------------------------------------------|
D|--0--3/4-4--0-0--3/4-4-4-4--0--3/4-4--0-0--3/4--4--4h6--|
A|--0--3/4-4--0-0--3/4-4-4-4--0--3/4-4--0-0--3/4--4--4h6--|
D|--0--3/4-4--0-0--3/4-4-4-4--0--3/4-4--0-0--3/4--4--4h6--|
                                                  PM


E|--------------------------------------------------------|
B|--------------------------------------------------------|
G|--------------------------------------------------------|
D|--0--3/4-4--0-0--3/4-4-4-4--0--3/4-4--0-0--3/4--4--4h6--|
A|--0--3/4-4--0-0--3/4-4-4-4--0--3/4-4--0-0--3/4--4--4h6--|
D|--0--3/4-4--0-0--3/4-4-4-4--0--3/4-4--0-0--3/4--4--4h6--|
                                                  PM

E|--0--|
B|--0--|
G|--x--|
D|--3--|
A|--3--|
D|--3--|

VERSE 2
E|--------------------------|--------------------------|
B|--------------------------|--------------------------|
G|--------------------------|--------------------------|
D|-2--0-2-2--2-2--0-2-3-3-0-|-2--0-2-2--2-2--0-2-3-3-0-|
A|-2--0-2-2--2-2--0-2-3-3-0-|-2--0-2-2--2-2--0-2-3-3-0-|
D|-2--0-2-2--2-2--0-2-3-3-0-|-2--0-2-2--2-2--0-2-3-3-0-|

INTERLUDE1 
|-----------------------------------|
|-----------------------------------|
|-----------------------------------|
|------3-------5-----5---4---2---0--|
|----3---3---3---3------------------|
|--3-------3-------0---0---0---0----|

VERSE 1

CHORUS 2
E|--------------------------------------------------------|
B|--------------------------------------------------------|
G|--------------------------------------------------------|
D|--0--3/4-4--0-0--3/4-4-4-4--0--3/4-4--0-0--3/4--4--4h6--|
A|--0--3/4-4--0-0--3/4-4-4-4--0--3/4-4--0-0--3/4--4--4h6--|
D|--0--3/4-4--0-0--3/4-4-4-4--0--3/4-4--0-0--3/4--4--4h6--|
                                                  PM

E|--------------------------------------------------------|
B|--------------------------------------------------------|
G|--------------------------------------------------------|
D|--0--3/4-4--0-0--3/4-4-4-4--0--3/4-4--0-0--3/4--4--4h6--|
A|--0--3/4-4--0-0--3/4-4-4-4--0--3/4-4--0-0--3/4--4--4h6--|
D|--0--3/4-4--0-0--3/4-4-4-4--0--3/4-4--0-0--3/4--4--4h6--|
                                                  PM
[ Tab from: http://www.guitartabs.cc/tabs/s/silverchair/freak_tab_ver_5.html ]
BRIDGE
E|-------------------------------|
B|-------------------------------|
G|-------------------------------|
D|--5-5--2-0-2-2--4--4-4-4-4-4-4-|
A|--5-5--2-0-2-2--4--4-4-4-4-4-4-|
D|--5-5--2-0-2-2--4--4-4-4-4-4-4-|

After that guitar 2 plays with closed wah (if you stretch, you can
play this part as part of guitar 1)
E|------------|
B|------------|
G|--6^(1/2)6--|
D|------------|
A|------------|
D|------------|

E|-------------------------------|
B|-------------------------------|
G|-------------------------------|
D|--5-5--2-0-2-2--4--4-4-4-4-4-4-|
A|--5-5--2-0-2-2--4--4-4-4-4-4-4-|
D|--5-5--2-0-2-2--4--4-4-4-4-4-4-|

After that guitar 2 plays this with open wah
E|-0-|
B|-0-|
G|-x-|
D|-4-|
A|-4-|
D|-4-|

E|-------------------------------|
B|-------------------------------|
G|-------------------------------|
D|--5-5--2-0-2-2--4--4-4-4-4-4-4-|
A|--5-5--2-0-2-2--4--4-4-4-4-4-4-|
D|--5-5--2-0-2-2--4--4-4-4-4-4-4-|

After that guitar 2 plays with closed wah
E|------------|
B|------------|
G|--6^(1/2)6--|
D|------------|
A|------------|
D|------------|

E|---------------------------------------------------0--|
B|---------------------------------------------------0--|
G|---------------------------------------------------x--|
D|--5-5--2-0-2-2--4--4-4-4-4-4-4--4--4-4-4-4-4-4-4---3--|
A|--5-5--2-0-2-2--4--4-4-4-4-4-4--4--4-4-4-4-4-4-4---3--|
D|--5-5--2-0-2-2--4--4-4-4-4-4-4--4--4-4-4-4-4-4-4---3--|
                     PM_________     PM___________

VERSE 3
E|--------------------------|--------------------------|
B|--------------------------|--------------------------|
G|--------------------------|--------------------------|
D|-2--0-2-2--2-2--0-2-3-3-0-|-2--0-2-2--2-2--0-2-3-3-0-|
A|-2--0-2-2--2-2--0-2-3-3-0-|-2--0-2-2--2-2--0-2-3-3-0-|
D|-2--0-2-2--2-2--0-2-3-3-0-|-2--0-2-2--2-2--0-2-3-3-0-|

E|--------------------------|--------------------------|
B|--------------------------|--------------------------|
G|--------------------------|--------------------------|
D|-2--0-2-2--2-2--0-2-3-3-0-|-2--0-2-2--2-2--0-2-3-3-0-|
A|-2--0-2-2--2-2--0-2-3-3-0-|-2--0-2-2--2-2--0-2-3-3-0-|
D|-2--0-2-2--2-2--0-2-3-3-0-|-2--0-2-2--2-2--0-2-3-3-0-|

INTERLUDE 2
E|--------------------------------------|
B|--------------------------------------|
G|-----------5-5------------------------|
D|--3---3-3--5-5-0-0-0-0-0-0-0-0-0--0-0-|
A|--3---3-3--3-3-0-0-0-0-0-0-0-0-0--0-0-|
D|--3---3-3------0-0-0-0-0-0-0-0-0--0-0-|
        PM_____________________________
E|----------------------------------------|
B|----------------------------------------|
G|-------------5-5------------------------|
D|--3-3-3-3-3--5-5-0-0-0-0-0-0-0-0-0--0-0-|
A|--3-3-3-3-3--3-3-0-0-0-0-0-0-0-0-0--0-0-|
D|--3-3-3-3-3------0-0-0-0-0-0-0-0-0--0-0-|
    PM___________________________________
E|----------------------------------------|
B|----------------------------------------|
G|-------------5-5------------------------|
D|--3-3-3-3-3--5-5-0-0-0-0-0-0-0-0-0--0-0-|
A|--3-3-3-3-3--3-3-0-0-0-0-0-0-0-0-0--0-0-|
D|--3-3-3-3-3------0-0-0-0-0-0-0-0-0--0-0-|
    PM___________________________________
E|----------------------------------------|
B|----------------------------------------|
G|-------------5-5------------------------|
D|--3-3-3-3-3--5-5-0-0-0-0-0-0-0-0-0--0-0-|
A|--3-3-3-3-3--3-3-0-0-0-0-0-0-0-0-0--0-0-|
D|--3-3-3-3-3------0-0-0-0-0-0-0-0-0--0-0-|
    PM____________________________________

SOLO (TREMELO PICKING)
E|------------------------------------------------------------|
B|------------------------------------------------------------|
G|--14----17----------14----17----------17^----------14-------|
D|--------------16----------------16-----------17----------16-|
A|------------------------------------------------------------|
D|------------------------------------------------------------|

INTERLUDE 2 (without the palm mutes)
GTR 2 plays this once in the background
E|------------------|
B|------------------|
G|-11-11-11-11-11-9-|
D|------------------|
A|-9--9--9--9--9--7-|
D|------------------|

OUTRO
E|--------------------------|--------------------------|
B|--------------------------|--------------------------|
G|--------------------------|--------------------------|
D|-2--0-2-2--2--2--2--0-0-0-|-2--0-2-2--2--2--2--0-0-0-|
A|-2--0-2-2--2--2--2--0-0-0-|-2--0-2-2--2--2--2--0-0-0-|
D|-2--0-2-2--2--2--2--0-0-0-|-2--0-2-2--2--2--2--0-0-0-|

E|--------------------------|--------------------------|
B|--------------------------|--------------------------|
G|--------------------------|--------------------------|
D|-2--0-2-2--2--2--2--0-0-0-|-2--0-2-2--2--2--2--0-0-0-|
A|-2--0-2-2--2--2--2--0-0-0-|-2--0-2-2--2--2--2--0-0-0-|
D|-2--0-2-2--2--2--2--0-0-0-|-2--0-2-2--2--2--2--0-0-0-|

E|-----|
B|-----|
G|--3--|
D|--2--|
A|--2--|
D|--2--|
(LET RING)
Comments