Silverchair - Freak Show Album Chords & Tabs

 

Freak Show Album Chords & Tabs

Silverchair Chords & Tabs

Version: 1 Type: Tab 0 ratings
1 star 2 stars 3 stars 4 stars 5 stars
comments

Freak Show Album Tab

#----------------------------------PLEASE NOTE---------------------------------#
#This file is the author's own work and represents their interpretation of the #
#song. You may only use this file for private study, scholarship, or research. #
#------------------------------------------------------------------------------#
#

 
  THIS IS THE COMPLETE TABS FOR         key| p.m.=palm 
SILVERCHAIR'S "FREAK SHOW"                |  mute
TABBED BY:JAIME W @AOL.COM                                    ^ v=indicator

THIS is Slave, the first song on the new one(dropped D tuning)
INTRO
E-------------------------------------------------------------------------------
B------------------------------------------------------------------------------------------------------|2nd time only|
G--------------------------------------------------------------------------------2--2--2-3--2--2--2-|---------------|
D_4----4-4-4-----4----4-4-4---4----4-4-4-4-1-0---0---------------------0--0--0_-3--0--0--0-|---4-----------|
A-4----4-4-4-----4----4-4-4---4----4-4-4-4-1-0---0---------------------0--0--0---3--0--0--0-|---4-----------|
D_4----4-4-4-----4----4-4-4---4----4-4-4-4-1-0---0--3/5-0-3/5-0-3---0--0--0_-3--0--0--0-|---4-----------|
                                                                                                                
VERSE                                                CHORUS
-----------------------------------------|--------------------------------------------------
-----------------------------------------|--------------------------------------------------
-----------------------------------------|--------------------------------------------------
-1-3|-0--0--0_3--0--0--0------------|--0--0--0_3--0--0--0---4-3-0------------------
-1-3|-0--0--0_3--0--0--0------------|--0--0--0_3--0--0--0---4-3-0-----------------
-1-3|-0--0--0_3--0--0--0------------|--0--0--0_3--0--0--0---4-3-0-----------------
^play until "lived too long and....."

INTERLUDE(Daniel yells "go"
------------------------------------------------------------------------------------------
------------------------------------------------------------------------------------------
------------------------------------------------------------------------------------------
------------------------------------------------------------------------------------------
-----------------------------------------------------------------------------------------
-2-1-0 upto-4-3-0-------------------------------------------------------------------
__________________________________________________________________________________

this is FREAK 
----------------------------------------------------------------------------------------------
----------------------------------------------------------------------------------------------
---------------------------------------------------------------------------5-------------------
--2-2-0-2-2-2-2-2-0-0-0---0-4-5-5-5-0-0-4-5-5-5--------3------5--5----0--0--------
--2-2-0-2-2-2-2-2-0-0-0---0-4-5-5-5-0-0-4-5-5-5------3--3--3--------0--0--0------
--2-2-0-2-2-2-2-2-0-0-0---0-4-5-5-5-0-0-4-5-5-5----3---------------0---------------
^main                                 ^ "yeah im a freak" part | ^ "body and soul"

INTERLUDE                             SOLO
----------------------------|------------------------------------------------------------
----------------------------|--------------------------12\-----10\---------------------
----------------------------|--14/17\11--14/17\11-----\11-----\11-----------------
--5-5-5-0-2-0-4-4-4-4--|-----------------------------------------------------------
--5-5-5-0-2-0-4-4-4-4--|-----------------------------------------------------------
--5-5-5-0-2-0-4-4-4-4--|-----------------------------------------------------------
                                         ^value is longer ^^^^
_________________________________________________________________________________


ABUSE ME
this is the tabs for "Silverchair's" New Single on  "FREAK SHOW" (Dropped D Tuning)

riff 1
-----------------------------------------------------------------------------------------------------------------------------
-----------------------------------------------------------------------------------------------------------------------------
---------6----------------6------------------2--0-----------------2-----------------6-----6-0---------------6---------
-----0----0---------0------0----------0-----------0----------0-----0-----------------0-------0----------0---0-------
---7--7-----7----7---7------7-----3---3-------------3----3---------3---------7---------------7-----7--------7-----
-7--------------7------------------3------------------------3-------------3-/-7----------------------7--------------7\-

                                   riff 2
--------------------------------------0--0--0--0------0-|--0----------------------------------------------
--------------------------------------0--0--0--0------0-|--0----------------------------------------------
---------2-------2---0--------------2--2--2--2------4-|--4----------------------------------------------
--------------------------------------3--3--3--3/-5--5-|--5/--7-------7-----------7------------7----------
-----3------3-------------3---------3--3--3--3/-5--5-|--5/-7-----7---7----7-------7-----7----7----7\-
--3--------------------------3-------3--3--3--3/-5--5-|--5/-7--7--------7----7--------7----------7-----
                       repeat3x,singing begins/>| fill1    ^1st chorus
[ Tab from: http://www.guitartabs.cc/tabs/s/silverchair/freak_show_album_tab.html ]
------------------------------------------------------------------------------------------------------------------
-----------------------------------------------------------------------------------------------------------------
-----------------------------------------------------------------------------------------------------------------
---------3-----------------3----------3------------------7------------7------------7------------------------------
-----3-----3-----3----------3-----3----3----3/-----7---7----7--------7-----7-----7----7\-------
--3-----------3-----3----------3-----------3-----7---------7----7--------7------------7----------

------------------------------------------------------------------------------------|---------------------------------
------------------------------------------------------------------------------------|--------------------------------
--------------------------------------------------1--1--1--1--1-----------------|----------------------------------
--------3--------------3------------3-----------0--0--0--0--0-----------------|---------------------------------
-----3----3-----3--------3-----3-----3---3---2--2--2--2--2-----------------|---------------------------------
--3----------3-----3--------3-----------3-----2--2--2--2--2--|---------------|--------------------------------
                                                 ^ riff 3             ^riff 2 then   ^1st chorus then ^riff3 2x    
main Chorus                                       palm mute
----------------------------------------------------------V--------------------------------------------------------------
--------------------------------------------------------------------------------------------------------------------------
----------------7--12---14-------------5--7--9--7------------------------------------------------------------------
-7--3---0-----x---x----x---7--3--0--x--x--x--x--0--3-3-0---333-0--333-0--0000000------------------
-7--3---0-----9--10--12---7--3--0--3--5-x--5_-0--3-3-0---333-0--333-0--0000000------------------
-7--3---0-----0---0----0---7--3--0--0--0--0--0--0--3-3-0---333-0--333-0--0000000------------------
^repeat 2x                                         |   end chorus                              ^first chorus

solo
--12-\-------------------------------------------------------------------------------------------9-10-9-10-12-10-9-
--------\1-1/6--5-5/6-6/8--10-10\8/12-13/14-13-13-13-12/\10-10\5-8-8-10---------------------------
-----------------------------------------------------------------------------------------------------------------------------
-----------------------------------------------------------------------------------------------------------------------------
-----------------------------------------------------------------------------------------------------------------------------
-----------------------------------------------------------------------------------------------------------------------------

10---------------------------------------------------------------------------------------------------------------------------
-------------------------------------------------------------------------------------------------------------------------------
----7--7\5--4--2--1--------------------------------------------------------6--------------------6------------2--2-0----
--------------------------------------------------------------------------0-------0-----------0------0------------0--------
-----------------------------------------------------------------------7----7-------7------7-----------7----3---------3---
------------------------------------------------------------------|--7-----------------7-7-----7--------7-3--------------3-
          end solo ^riff3 2x then main chorus 2x |^outro

__________________________________________________________________________________
this is LIE TO ME  drop d tuning
-----------------------
-----------------------
-----------------------
-10\5/6\3------------ 
-10\5/6\3------------
-10\5/6\3------------

__________________________________________________________________________________


THIS IS NO ASSOCIATION
------------------------------------------------------------------------------------------
------------------------------------------------------------------------------------------
------------------------------------------------------------------------------------------
--0-2-2-0-5-3-0-6-5-0-8-7-0-11---0-2-2---0-2-2-0-2-3-3---0-2-0-2-0-2-0-2-
--0-2-2-0-5-3-0-6-5-0-8-7-0-11---0-2-2---0-2-2-0-2-3-3---0-2-0-2-0-2-0-2-
--0-2-2-0-5-3-0-6-5-0-8-7-0-11---0-2-2---0-2-2-0-2-3-3---0-2-0-2-0-2-0-2-
^main                                           ^p.m. this                       ^interlude

------------------------------------------------------------------------------------------
------------------------------------------------------------------------------------------
------------------------------------------------------------------------------------------
--0-2-0-2-0-2-0-2/6---0-2-0-2-0-2-0-2/8------------------------------------------
--0-2-0-2-0-2-0-2/6---0-2-0-2-0-2-0-2/8------------------------------------------
--0-2-0-2-0-2-0-2/6---0-2-0-2-0-2-0-2/8------------------------------------------
__________________________________________________________________________________


Door
------------------------------------------------------------------------------------------
------------------------------------------------------------------------------------------
-5-4-2-0-2-4-2-0----------------------------------------------------------------------
-play all other strings open------3/5----------------------------------------------------
--------------------------------------3/5----------------------------------------------------
--------------------------------------3/5----------------------------------------------------
____________________________________________________________________________________


THIS IS LEARN TO HATE 
------------------------------------------------------------------------------------------
------------------------------------------------------------------------------------------
------------------------------------------------------------------------------------------
-x-x-x-x-8-8-8-8/10-10-10-10\5-5-5-5/6-6-6-6--------------------------------------
-x-x-x-x-8-8-8-8/10-10-10-10\5-5-5-5/6-6-6-6-------------------------------------
-x-x-x-x-8-8-8-8/10-10-10-10\5-5-5-5/6-6-6-6--
Comments