Silverchair - Freak Chords & Tabs

 

Freak Chords & Tabs

Silverchair Chords & Tabs

Version: 1 Type: Bass Tab 0 ratings
1 star 2 stars 3 stars 4 stars 5 stars
comments

Freak Bass Tab

Song: Freak
Artist: Silverchair
Album: Freak Show
Original Tab on The Bass Tab Archive: Dan Flynn
Totally Redone by: David Parent, member of the BTA Tabbing Army
Tuning: Dropped D

|----------|-------------------------|
|Gtr Intro-|-------------------------|  6x
|-4--Bars--|-------------------------|
|----------|-2--0-2-2--2-2-2--0-0-0--|

|---------------------------------------------------------|
|---------------------------------------------------------|
|---------------------------------------------------------|
|-0--3-4-4---0-0---3-4-4-4-4---0--3-4-4---0-0---3-4--4/6--|

|----------------------------------------------------------------------|
|----------------------------------------------------------------------|
|--------------------------------------------------------------hold----|
|-0--3-4-4----0-0---3-4-4-4-4----0--3-4-4---0-0---3--4-4-4----3----3---|

|-------------------------------------------------------------|
|-------------------------------------------------------------|
|-------------------H------------------------------H----------|
|-2--0-2-2--2-2-0--2-3--3--0-----2--0-2-2--2-2-0--2-3--3--0---|

|----------------------------------------------------------------|
|----------------------------------------------------------------|
|---3-3--5----------3-3--------------3-3--5----------3-3---------|
|-3---------0--0--3------0-0-0----3---------0--0--3------0-0-0---|

|-------------------------|
|-------------------------|  4x
|-------------------------|
|-2--0-2-2--2-2-2--0-0-0--|
[ Tab from: http://www.guitartabs.cc/tabs/s/silverchair/freak_btab.html ]
|---------------------------------------------------------|
|---------------------------------------------------------|
|---------------------------------------------------------|
|-0--3-4-4---0-0---3-4-4-4-4---0--3-4-4---0-0---3-4--4/6--|

|-------------------------------------------------------------|
|-------------------------------------------------------------|
|-------------------------------------------------------------|
|--0--3-4-4----0-0---3-4-4-4-4----0--3-4-4---0-0---3-4-4-4-4--|

|------------------------------------|
|------------------------------------|  3x
|------------------------------------|
|-5-5--2-0-2--0-2/4---4-4-4-4-4-4-4--|

|-----------------------------------------------------------------|
|-----------------------------------------------------------------|
|---------------------------------------------------------hold----|
|-5-5--2-0-2--0-2/4---4-4-4-4-4-4--4---4-4-4-4-4-4-4-4---3----3---|

|------------------------------|
|------------------------------|  4x
|-------------------H----------|
|-2--0-2-2--2-2-0--2-3--3--0---|

|-----------------------------------------------------------------------|
|-----------------------------------------------------------------------|6x
|----------3-3--5------------------------------3-3----------------------|
|3-3-3-3-3--------0-0-0-0--0-0-0-0---3-3-3-3-3------0--0-0-0-0--0-0-0-0-|

|--------------------------|        |------------|
|--------------------------|  4x    |------------|
|--------------------------|        |--(-hold--)-|
|--2--0-2-2--2-2-2--0-0-0--|        |--2---2---2-|
Comments