Silverchair - Find A Way Chords & Tabs

 

Find A Way Chords & Tabs

Silverchair Chords & Tabs

Version: 1 Type: Tab 0 ratings
1 star 2 stars 3 stars 4 stars 5 stars
comments

Find A Way Tab

   
#----------------------------------PLEASE NOTE---------------------------------#
#This file is the author's own work and represents their interpretation of the #
#song. You may only use this file for private study, scholarship, or research. #
#------------------------------------------------------------------------------#

Findaway - silverchair

This is my favorite song off of frogstomp. 

Comments - JesusPnkr@aol.com

Tuning - Drop D with everything down whole step 
high to low D,A,F,C,G,C
[ Tab from: http://www.guitartabs.cc/tabs/s/silverchair/find_a_way_tab.html ]
Intro
d -----------------------------------
a -----------------------------------
f -----------------------------------
c -----------------------------------
g --8--8--8--8--8--8--8--8--8--8-----
c --8--8--8--8--8--8--8--8--8--8-----
Verse 
d --------------------------------------------------------------------
a --------------------------------------------------------------------
f -12--12--12--12--7--7--7--7-/---10---10--10---10--10--5--5--5--5----
c -12--12--12--12--7--7--7--7-/---10---10--10---10--10--5--5--5--5----
g -10--10--10--10--5--5--5--5-/---8----8---8----8---8---3--3--3--3----
c -10--10--10--10--5--5--5--5-/---8----8---8----8---8---3--3--3--3----
     
d --------------------------------------------------------------------
a --------------------------------------------------------------------
f -12--12--12--12--12--7---7--7----7----7---7---7-----10--------10--/-
c -12--12--12--12--12--7---7--7----7----7---7---7-----10--7-x-x-10--/-
g -10--10--10--10--10--5---5--5----5----5---5---5-----8---------8---/-
c -10--10--10--10--10--5---5--5----5----5---5---5-----8---------8---/-
 
Interlude
d --------------------------------------------------------------------
a --------------------------------------------------------------------
f --------------------------------------------------------------------
c --6--8--6-----------------------------------------------------------
g --6--6----6--5--5--5--3--3-/-5--3--(5)---5---5--3---3-/-5-----------
c --6--6----6--5--5--5--3--3-/-5--3--(5)---5---5--3---3-/-5---0-------
Chorus
d --5--5--5--5--2-----2--2--2---2-----3--3--3--3--3-------------------
a --5--5--5--5--2-----2--2--2---2-----3--3--3--3--3---8--8--8--8--8---
f --7--7--7--7--4-----4--4--4---4-----5--5--5--5--5---7--7--7--7--7---
c --7--7--7--7--4-----4--4--4---4-----5--5--5--5--5---5--5--5--5--5---
g --5--5--5--5--2-----2--2--2---2-----3--3--3--3--3---5--5--5--5--5---
c ----------------------------------------------------5--5--5--5--5---
                   We'll find away
d --5--5---5---5-----2---2---2--2-----3--3--3---3---------------------
a --5--5---7---7-----2---2---2--2-----3--3--3---3----8--8--8--8--8----
f --7--7---7---7-----4---4---4--4-----5--5--5---5----7--7--7--7--7----
c --7--7---5---5-----4---4---4--4-----5--5--5---5----5--5--5--5--5----
g --5--5---5---5-----2---2---2--2-----3--3--3---3----5--5--5--5--5----
c ---------------------------------------------------5--5--5--5--5----
   
Interlude
d --------------------------------------------------------------------
a --------------------------------------------------------------------
f ---12--12--12--12---7---7---7---7-----10---10--10--10---5--5--5--5--
c ---12--12--12--12---7---7---7---7-----10---10--10--10---5--5--5--5--
g ---10--10--10--10---5---5---5---5-----8----8---8---8----3--3--3--3--
c ---10--10--10--10---5---5---5---5-----8----8---8---8----3--3--3--3--
Verse - played like previous
Guitar Solo
d --------------------------------------------------------------------
a --5--5--5--5--5-/-8--8--8--8--8--8-/-11--11--11--11-/-13--13--13-/--
f --5--5--5--5--5-/-7--7--7--7--7--7-/-10--10--10--10-/-12--12--12-/--
c --2--2--2--2--2-/-5--5--5--5--5--5-/-8---8---8---8--/-10--10--10-/--
g --------------------------------------------------------------------
c --------------------------------------------------------------------
play two times
Interlude
d --------------------------------------------------------------------
a --------------------------------------------------------------------
f --8--8---8---8---5--5--5---5---3--3---3--3---5--5--5--5--3--3--3--3-
c --8--8---8---8---5--5--5---5---3--3---3--3---5--5--5--5--3--3--3--3-
g --6--6---6---6---3--3--3---3---1--1---1--1---3--3--3--3--1--1--1--1-
c --6--6---6---6---3--3--3---3---1--1---1--1---3--3--3--3--1--1--1--1-
Chorus
strike last chord of chorus and let it ri
Comments