Silverchair - Faultline Chords & Tabs

 

Faultline Chords & Tabs

Silverchair Chords & Tabs

Version: 1 Type: Chords 0 ratings
1 star 2 stars 3 stars 4 stars 5 stars
comments

Faultline Chords

   



FAULTLINE by silverchair
Transposed by Braamo (bpsmith@socs.uts.edu.au)

Not much tablature to speak of, just a shit loada chords:

AA6

E-------0-----------------------0---------------
B-------2-----------------------0---------------
G-------2-----------------------2---------------
D-------2-----------------------2---------------
A-------0-----------------------0---------------
E-----------------------------------------------

These are the two that are important, others such as C6 and Bb6 are 
just the A6 chord on the 3rd and 2nd frets repectively.

Verse:

D     D6   D    C6    C  C6            C            C6   C   C6
(Unsuspecting brother .... doesn't know what to do...)

Chorus: [Over-drive/distortion]


F F F D       F    D#
Will never see the boy, will never see the boy,...

[ Tab from: http://www.guitartabs.cc/tabs/s/silverchair/faultline_crd.html ]
After second chorus, the interlude repeats:

D / A G F / / /

Chord progression before the song holds on C is

D / A G F E D C

In case you haven't figured it out, after the power C which holds for 
8 beats a power D is played and held for 8 beats.

The song finishes with an indecipherable sequence which seems to be just 
C and D in no particular order. I just play this by repeating:

E-----------------------------------------------|
B---7---5---7---5---5---(7)---5-----------------|
G---7---5---7---5---5---(7)---5-----------------|
D---7---5---7---5---5---(7)---5-----------------|
A-----------------------------------------------|
E-----------------------------------------------|

The same chord progression described above is played (a little quicker)
after this little interlude and finishes like this:

C / / / / / / D


Braamo

(bpsmith@socs.uts.edu.au)
Comments