Silverchair - Emotion Sickness Chords & Tabs

 

Emotion Sickness Chords & Tabs

Silverchair Chords & Tabs

Version: 4 Type: Tab 0 ratings
1 star 2 stars 3 stars 4 stars 5 stars
comments

Emotion Sickness Tab

   
Emotion Sickness
Silverchair (neon ballroom)
Tuning = Drop Db (low to high= Db Ab Db Gb Bb Eb)

***I am pretty sure that these are right. But if you find a few mistakes, 
email me with the right tabs at silverchair_surfing_bird@hotmail.com***

intro (0:00)
-----------------1-1-1---1-1-1--------------------1-1-1---1-1-1-
-3-3-3---3-3-3---1-1-1---1-1-1----3-3-3---3-3-3---1-1-1---1-1-1-
-2-2-2---2-2-2---3-3-3---3-3-3----2-2-2---2-2-2---3-3-3---3-3-3-
-0-0-0---0-0-0---3-3-3---3-3-3----0-0-0---0-0-0---3-3-3---3-3-3-
-0-0-0---0-0-0---1-1-1---0-0-0----0-0-0---0-0-0---1-1-1---0-0-0-
-0-0-0---3-3-3--------------------0-0-0---3-3-3-----------------

verse 1 (0:08)
----------------------------------------------------------------------------
-----1--------1---------1---------1--------1--------1-----------------------
-------------------------------------------------------------2---------2----
---3---3----3---3-----3---3-----3---3----3---3----3---3----3---3-----3---3--
--------------------1---------0--------1--------1--------1---------1--------
-0--------3-----------------------------------------------------------------


----------------------------------------------------------------------------
-----1--------1---------1---------1--------1--------1--------1---------1----
----------------------------------------------------------------------------
---3---3----3---3-----3---3-----3---3----3---3----3---3----3---3-----2---2--
--------------------1---------0--------1--------1--------3---------3--------
-0--------3-----------------------------------------------------------------


----------------------------------------------------------------------------
-----1--------1---------1---------1--------3--------3--------3---------3----
----------------------------------------------------------------------------
---3---3----3---3-----3---3-----3---3----3---3----3---3----3---3-----3---3--
--------------------1---------0--------1--------1--------1---------1--------
-0--------3-----------------------------------------------------------------


----------------------------------------------------------------------------
-----1--------1---------1---------1--------1--------1--------1---------1----
----------------------------------------------------------------------------
---3---3----3---3-----3---3-----3---3----3---3----3---3----3---3-----2---2--
--------------------1---------0--------1--------1--------3---------3--------
-0--------3-----------------------------------------------------------------

(0:36)
-----------------1-1-1---1-1-1--
-3-3-3---3-3-3---1-1-1---1-1-1--
-2-2-2---2-2-2---3-3-3---3-3-3--
-0-0-0---0-0-0---3-3-3---3-3-3--
-0-0-0---0-0-0---1-1-1---0-0-0--
-0-0-0---3-3-3------------------


Verse 2 (0:39)
----------------------------------------------------------------------------
-----1--------1---------1---------1--------3--------3--------3---------3----
----------------------------------------------------------------------------
---3---3----3---3-----3---3-----3---3----3---3----3---3----3---3-----3---3--
--------------------1---------0--------1--------1--------1---------1--------
-0--------3-----------------------------------------------------------------


----------------------------------------------------------------------------
-----1--------1---------1---------1--------1--------1--------1---------1----
----------------------------------------------------------------------------
---3---3----3---3-----3---3-----3---3----3---3----3---3----3---3-----2---2--
--------------------1---------0--------1--------1--------3---------3--------
-0--------3-----------------------------------------------------------------


Bridge (0:53)
-----0---------0---------------------------------------------3-
-------------------------3--------3---------2----------2-----2-
-------2---------2---------2--------2------------------------0-
---2---------2---------2--------2---------2---2------2---2---2-
-0---------0---------0--------0---------0----------0---------0-
---------------------------------------------------------------

(0:59)
------------------
------------------
--2?3?2---2?3?2---
----------------3-
------------------
------------------

(1:01)											x4
------------------------------------------------------------------------
----10------11------11-------10-------10------10--------10--------10----
--10--10---9--9---12--12---10--10----9--9----9--9-----------------------
-0--------0------0--------0---------------------------12--12----12--12--
-----------------------------------0-------0--------0---------0---------
------------------------------------------------------------------------
[ Tab from: http://www.guitartabs.cc/tabs/s/silverchair/emotion_sickness_tab_ver_4.html ]
(1:29)			x2
----------------------
----10-------10-------
----------------------
--11--11---11--12-----
-0--------0-----------
----------------------

(1:32)
-------------------------------------------------
-------------------------------------------------
-------------------------------------------------
-------------------------------------------------
-12-12-12-12-12-12-12-12-12-12-12-12-12-12-12-12-
-12-12-12-12-12-12-12-12-12-12-12-12-12-12-12-12?
-------------------------------------------------
-------------------------------------------------
-------------------------------------------------
-------------------------------------------------
-12-12-12-12-12-12-12-12-10-10-10-10-10-10-10-10-
-10-10-10-10-10-10-10-10-10-10-10-10-10-10-10-10-


(2:01)
-----0---------0--------------------------------------------3-
-------------------------3--------3---------2----------2----2-
-------2---------2---------2--------2-----------------------0-
---2---------2---------2--------2---------2---2------2---2--2-
-0---------0---------0--------0---------0----------0--------0-
--------------------------------------------------------------

w/dist (2:08)
------------------------------------------------
------------------------------------------------
------------------------------------------------
-7-------7---7-------7---5-------5---5-------5--
-5-------5---5-------5---3-3-3-3-3---3-3-3-3-3--
---0-0-0-------0-0-0----------------------------
   P.M.-|	     P.M.-|	     P.M.-|      P.M.-|

W/dist (2:23)
------------------------------------------------------------
-3-------3--3-------3---------------------------------------
-2-------2--2-------2---------------------------------------
-0-------0--0-------0----------3---3-3-3---4---4-4-4--------
-0-3-3-2-0--0-3-2-2-0---3/7----1---1-1-1---2---2-2-2---2/12-
---0-0-0------0-0-0-----------------------------------------
   PM- -|	    PM - |

(2:52)
--------------------------------------------------------0----------------
----10------11------11-------10---------------------3----------3---------
--10--10---9--9---12--12---10--10------------5p2----------2------2-------
-0--------0------0--------0-----------2-3-2------3----------3------3-----
------------------------------------3------------------------------------
-------------------------------------------------------------------------

(3:22)
-------------------------------------------------
-------------------------------------------------
-------------------------------------------------
-------------------------------------------------
-12-12-12-12-12-12-12-12-12-12-12-12-12-12-12-12-
-12-12-12-12-12-12-12-12-12-12-12-12-12-12-12-12?

-------------------------------------------------
-------------------------------------------------
-------------------------------------------------
-------------------------------------------------
-12-12-12-12-12-12-12-12-10-10-10-10-10-10-10-10-
-10-10-10-10-10-10-10-10-10-10-10-10-10-10-10-10-
(3:52)
-----------------1-1-1---1-1-1--------------------1-1-1---3-3-3-
-3-3-3---3-3-3---1-1-1---1-1-1----3-3-3---3-3-3---1-1-1---3-3-3-
-2-2-2---2-2-2---3-3-3---3-3-3----2-2-2---2-2-2---3-3-3---5-5-5-
-0-0-0---0-0-0---3-3-3---3-3-3----0-0-0---0-0-0---3-3-3---5-5-5-
-0-0-0---0-0-0---1-1-1---0-0-0----0-0-0---0-0-0---1-1-1---3-3-3-
-0-0-0---3-3-3--------------------0-0-0---3-3-3-----------------

-----------------1-1-1---1-1-1----1-1-1---3-3-3------------
-3-3-3---3-3-3---1-1-1---1-1-1----1-1-1---3-3-3----1-1-1---
-2-2-2---2-2-2---3-3-3---3-3-3----3-3-3---5-5-5----x-x-x---
-0-0-0---0-0-0---3-3-3---3-3-3----3-3-3---5-5-5----3-3-3---
-0-0-0---0-0-0---1-1-1---0-0-0----1-1-1---3-3-3----3-3-3---
-0-0-0---3-3-3---------------------------------------------

Interlude: (4:13)
--------------------------------------------------------------------------------
----10---11-10--13-10--11-10-----10---------------------------------------------
--10--10------10-----10-----10------------------------------------9-------------
-0-----------------------------------------11---12-11--------10-----10---12-14--
-------------------------------12--12----9----9-------9----8----8------8--------
---------------------------------------9-----------------8----------------------

outro v (this is off the top of my head)
------------------------------------------------------------------------------
----10---11-10--13-10--11-10-----10-------------------------------------------
--10--10------10-----10-----10------------------9-----------------------------
-0-----------------------------------------10-----10--------11---12-11---0-0--
-------------------------------12--12----8----8------8----9----9-------9------
---------------------------------------8----------------9---------------------

________________________________________________________________________
Get Your Private, Free E-mail from MSN Hotmail at http://www.hotmail.com


 
Comments