Silverchair - Emotion Sickness Chords & Tabs

 

Emotion Sickness Chords & Tabs

Silverchair Chords & Tabs

Version: 3 Type: Tab 0 ratings
1 star 2 stars 3 stars 4 stars 5 stars
comments

Emotion Sickness Tab

   
Song-Emotion Sickness
Band-silverchair
Album-Neon Ballroom

Tab by Dave Lander
--------------------------------------------------

Tablature explanation

b   : bend
s   : slide
h   : hammer-on
p   : pull-off
x   : muffled string
P.M.: palm mute

Dropped D tuning one half step down (from low to
high:Db-Ab-Db-Gb-Bb-Eb), 
written chords
are relative to a "normal" Dropped-D


[0:00]
        D5     F5     A#5    A5+
eb||----------------------------------|| x2
Bb||----------------------------------||
Gb||-o----------------3-3-3--2-2-2--o-||
Db||-o--0-0-0--3-3-3--3-3-3--3-3-3--o-||
Ab||----0-0-0--3-3-3--1-1-1--0-0-0----||
Db||----0-0-0--3-3-3------------------||

[0:08]
|-----------------------------------------------------------------|
|-----3-------3-------3-------3-------3-------3-------------------|
|-----------------------------------------------------2-------2---|
|---3---3---3---3---3---3---3---3---3---3---3---3---3---3---3---3-|
|-----------------1-------0-------1-------1-------1-------1-------|
|-0-------3-------------------------------------------------------|
Erupt again ignore the pill

|-----------------------------------------------------------------|
|-----3-------3-------3-------3-------3-------3-------3-------3---|
|-----------------------------------------------------------------|
|---3---3---3---3---3---3---3---3---3---3---3---3---3---3---3---3-|
|-----------------1-------0-------1-------1-------3-------3-------|
|-0-------3-------------------------------------------------------|
And I won't let it show

|-----------------------------------------------------------------|
|-----3-------3-------3-------3-------3-------3-------3-------3---|
|-----------------------------------------------------------------|
|---3---3---3---3---3---3---3---3---3---3---3---3---3---3---3---3-|
|-----------------1-------0-------1-------1-------1-------1-------|
|-0-------3-------------------------------------------------------|
Sacrifice the tortures

|-----------------------------------------------------------------|
|-----3-------3-------3-------3-------3-------3-------3-------3---|
|-----------------------------------------------------------------|
|---3---3---3---3---3---3---3---3---3---3---3---3---3---3---3---3-|
|-----------------1-------0-------1-------1-------3-------3-------|
|-0-------3-------------------------------------------------------|
Orchestral tear cash-flow

[0:35]
  D5     F5     A#5    A5+
|----------------------------|
|----------------------------|
|---------------3-3-3--2-2-2-|
|-0-0-0--3-3-3--3-3-3--3-3-3-|
|-0-0-0--3-3-3--1-1-1--0-0-0-|
|-0-0-0--3-3-3---------------|

[0:39]
|-----------------------------------------------------------------|
|-----3-------3-------3-------3-------3-------3-------------------|
|-----------------------------------------------------2-------2---|
|---3---3---3---3---3---3---3---3---3---3---3---3---3---3---3---3-|
|-----------------1-------0-------1-------1-------1-------1-------|
|-0-------3-------------------------------------------------------|
Increase delete escape defeat
It's all that matters to you

|-----------------------------------------------------------------|
|-----3-------3-------3-------3-------3-------3-------3-------3---|
|-----------------------------------------------------------------|
|---3---3---3---3---3---3---3---3---3---3---3---3---3---3---3---3-|
|-----------------1-------0-------1-------1-------3-------3-------|
|-0-------3-------------------------------------------------------|
Cotton case for an iron pill

[0:53]
|--------------------------|
|--------------------------|
|----2-------2-------2-----|
|--2---2---2---2---2---2---|
|-0------0-------4-------7-|
|--------------------------|
Distorted eyes
When everything is clearly dying

[1:00]
||-----------------------------------------------------|| x4
||-----------------------------------------------------||
||-o--2-----0-----3-----2---2-----2-----2-----2------o-||
||-o----0-----0-----0-----0---3-----3-----2-----2----o-||
||------------------------------2-----2-----0-----0----||
||--------0-----0-----0--------------------------------||
Burn my knees and (x3)
[ Tab from: http://www.guitartabs.cc/tabs/s/silverchair/emotion_sickness_tab_ver_3.html ]
[1:28] Distortion on
|-------------------------|
|-------------------------|
|---2-------2---2-------2-|
|---------0-----------0---|
|-0---0-0-----0---0-0-----|
|-------------------------|

[1:32] Distortion off
  D5                              C5              A5
|-----------------------------------------------------------------|
|-----------------------------------------------------------------|
|-7-7-7-7-7-7-7-7-7-7-7-7-7-7-7-7-5-5-5-5-5-5-5-5-2-2-2-2-2-2-2-2-|
|-7-7-7-7-7-7-7-7-7-7-7-7-7-7-7-7-5-5-5-5-5-5-5-5-2-2-2-2-2-2-2-2-|
|-5-5-5-5-5-5-5-5-5-5-5-5-5-5-5-5-3-3-3-3-3-3-3-3-0-0-0-0-0-0-0-0-|
|-----------------------------------------------------------------|

      D5                              C5                               
 x3
||-----------------------------------------------------------------------||
||-----------------------------------------------------------------------||
||-o--7-7-7-7-7-7-7-7-7-7-7-7-7-7-7-7-5-5-5-5-5-5-5-5-5-5-5-5-5-5-5-5--o-||
||-o--7-7-7-7-7-7-7-7-7-7-7-7-7-7-7-7-5-5-5-5-5-5-5-5-5-5-5-5-5-5-5-5--o-||
||----5-5-5-5-5-5-5-5-5-5-5-5-5-5-5-5-3-3-3-3-3-3-3-3-3-3-3-3-3-3-3-3----||
||-----------------------------------------------------------------------||
Emotion sickness
Addict with no heroine
Emotion sickness

[2:00]
|--------------------------|
|--------------------------|
|----2-------2-------2-----|
|--2---2---2---2---2---2---|
|-0------0-------4-------7-|
|--------------------------|
Distorted eyes
When everything is clearly dying

[2:08] Distortion on
      D5               C5
||----------------------------------------|| x2
||----------------------------------------||
||-o--7------7------7--5------5------5--o-||
||-o--7------7------7--5------5------5--o-||
||----5--5-5-5--5-5-5-s3--3-3-3--3-3-3----||
||----------------------------------------||
         ***    ***           ***    ***      *:Palm Mute

      D5                  A#5    B5
||------------------------------------------|| x4
||------------------------------------------||
||-o--7------7------7--3------3--4-----4--o-||
||-o--7------7------7--3------3--4-----4--o-||
||----5--5-5-5--5-5-5-s1--1-1-1--2-2-2-2----||
||------------------------------------------||
         ***    ***       ***      ***

[2:52]
||-----------------------------------------------------|| x4
||-----------------------------------------------------||
||-o--2-----0-----3-----2---2-----2-----2-----2------o-||
||-o----0-----0-----0-----0---3-----3-----2-----2----o-||
||------------------------------2-----2-----0-----0----||
||--------0-----0-----0--------------------------------||
Burn my knees and
Burn my knees and pray
Burn my knees and
Burn my knees and pray

[3:22]
      D5                              C5                               
 x4
||-----------------------------------------------------------------------||
||-----------------------------------------------------------------------||
||-o--7-7-7-7-7-7-7-7-7-7-7-7-7-7-7-7-5-5-5-5-5-5-5-5-5-5-5-5-5-5-5-5--o-||
||-o--7-7-7-7-7-7-7-7-7-7-7-7-7-7-7-7-5-5-5-5-5-5-5-5-5-5-5-5-5-5-5-5--o-||
||----5-5-5-5-5-5-5-5-5-5-5-5-5-5-5-5-3-3-3-3-3-3-3-3-3-3-3-3-3-3-3-3----||
||-----------------------------------------------------------------------||
Get up get up get up get up
Get up get up get up
Won't you stop my pain

[3:52]
      D5     F5     A#5    A5+      x3
||----------------------------------||-----------------|
||----------------------------------||-----------------|
||-o----------------3-3-3--2-2-2--o-||-3-3-3--5-5-5--9-|
||-o--0-0-0--3-3-3--3-3-3--3-3-3--o-||-3-3-3--5-5-5--9-|
||----0-0-0--3-3-3--1-1-1--0-0-0----||-1-1-1--3-3-3--7-|
||----0-0-0--3-3-3------------------||-----------------|

[4:14]                                                                 
  x3
||------------0-----3-----1-----0-1-0-|-----------------------------------||
||--------3---------------------------|--------3---------------3----------||
||-o----2---------2-----2-----2-------|-----4----4---4-----3-----3---3--o-||
||-o--0-----0---0-----0-----0---------|---4--------4-----3---------3----o-||
||------------------------------------|-2-----2--------1-----1------------||
||------------------------------------|-----------------------------------||

[4:39]
Emotion sickness
Addict with no heroine
Good things will pass
It helps with excess access
Lessons learnt
Emotion sickness
Lessons learnt

Comments