Silverchair - Emotion Sickness Chords & Tabs

 

Emotion Sickness Chords & Tabs

Silverchair Chords & Tabs

Version: 1 Type: Tab 0 ratings
1 star 2 stars 3 stars 4 stars 5 stars
comments

Emotion Sickness Tab

   
Emotion Sickness - silverchair

This is my favorite silverchair song. This version is 100% accurate.
This shows Daniel's awesome musical talent as well.  Comments JesusPnkr@aol.com

On a note, the songs, stain(satin) sheets, emotion sickness, cemetery, steem(steam)
will rise, posted on this guitar tab site were not done by the claimed author but
taken from mike stramaglio and denis bourdon at chairpage.com.

The chords/notes picked are not necessarily relative to the words,(some are) 
words are just placed thereto show where they go, figure the timing by listening 
to the song.

C#m Tuning from high to low - C#, G#, E, C#, G#, C#

Intro 
c# -------------------------------------------------------
g# -3-3-3----3-3-3----3-3-3----3-3-3----------------------
e  -0-0-0----0-0-0----0-0-0----0-0-0----------------------
c# -0-0-0----0-0-0----3-3-3----3-3-3----------------------
g# -0-0-0----x-x-x----1-1-1----0-0-0----------------------
c# -0-0-0----3-3-3---------------------------------------- play twice

c# -------------------------------------------------------
g# -----3-------3-------3-------3-------3-------3---------
e  ---0---0---0---0---0---0---0---0---0---0---0---0-------
c# -------------------------------------------------------
g# -----------------1-------0-------1-------1-------------
c# -0-------3--------------------------------------------- 
    Erupt again ignore the pill
c# -------------------------------------------------------
g# -----0-------0-------3-------3-------3-------3---------
e  ---0---0---0---0---0---0---0---0---0---0---0---0-------
c# -------------------------------------------------------
g# -1-------1-----------------------1-------0-------------
c# -----------------0-------3----------------------------- 
   and I won't let it
c# -------------------------------------------------------
g# -----3-------3-------3-------3-------------------------
e  ---0---0---0---0---0---0-------------------------------
c# ---------------------------2---2-----------------------
g# -1-------1-------3-------3-----------------------------
c# ------------------------------------------------------- 
    show
c# -----------------------------------------------------3-
g# -----3-------3-------3-------3-------3-------3---------
e  ---0---0---0---0---0---0---0---0---0---0---0---0---0--0
c# -------------------------------------------------------
g# -----------------1-------0-------1-------1-------1-----
c# -0-------3--------------------------------------------- 
    Sacrifice the tortures
c# -----0-------0-------0---------------------------------
g# -------3-------3-------3-----3-------3-------3------3--
e  ---0-------0-------0-------0---0---0---0---0---0--0---0
c# -------------------------------------------------------
g# -1-------1-------1-----------------------1-------0-----
c# -------------------------0-------3--------------------- 
                             Orchestral
c# --------------------------------------------0-0-0-3-3-3
g# -----3-------3-------3-------3--3-3-3-3-3-3-3-3-3-3-3-3
e  ---0---0---0---0---0---0--------0-0-0-0-0-0-0-0-0-0-0-0
c# ---------------------------2----0-0-0-0-0-0-3-3-3-0-0-0
g# -1-------1-------3-------3------0-0-0-x-x-x-1-1-1-0-0-0
c# --------------------------------0-0-0-3-3-3------------ 
    tear cash flow
c# -------------------------------------------------------
g# -----3-------3-------3-------3-------------------------
e  ---0---0---0---0---0---0---0---0-----------------------
c# -------------------------------------------------------
g# -----------------1-------0-----------------------------
c# -0-------3--------------------------------------------- 
    Increase delete escape defeat
c# -----0-------0-------0-------0-------------------------
g# -------3-------3-------3-------3-----------------------
e  ---0-------0-------0-------0---------------------------
c# -------------------------------------------------------
g# -1-------1-------1-------1-----------------------------
c# ------------------------------------------------------- 
    it's all that matters to you
c# -------------------------------------------------------
g# -----3-------3-------3-------3-------------------------
e  ---0---0---0---0---0---0---0---0-----------------------
c# -------------------------------------------------------
g# -----------------1-------0-----------------------------
c# -0-------3--------------------------------------------- 
   Cotton case for an
c# -----------------------2-------------------------------
g# -----3--------3-----------------3----------------------
e  ---0---0----0---0----0---0-----------------------------
c# ------------------------------2---2--------------------
g# -1--------1--------3--------3--------------------------
c# ------------------------------------------------------- 
    iron pill
c# -----2--------2--------0--------0----------------------
g# -------0--------0--------0--------0--------------------
e  -------------------------------------------------------
c# ---2--------2--------2--------2------------------------
g# -0--------0--------0--------0--------------------------
c# ------------------------------------------------------- 
    Distorted eyes when
c# ---------------------5---------------------------------
g# -----4--------4------4-------0-------0-----------------
e  ---------------------2-----5-------5-------------------
c# ---2---2----2---2----2---7-------7---------------------
g# -0--------0----------0-------------------8-------------
c# ------------------------------------------------------- 
   everything is clearly dying
Interlude
c# -------------------------------------------------------
g# ------12---------13---------13---------12--------------
e  ---12----12---11----11---14----14---12----12-----------
c# -0----------0----------0----------0--------------------
g# -------------------------------------------------------
c# -0-----------------------------------------------------

c# -------------------------------------------------------
g# ------12---------12---------12---------12--------------
e  ---11----11---11----11---------------------------------
c# -------------------------11----11---11----11-----------
g# -0----------0----------0----------0--------------------
c# ------------------------------------------------------- end interlude
Pre-Chorus
c# -------------------------------------------------------
g# ------12-----------12------12-----------12-------------
e  -----------------9--------------------9----------------
c# ---11----11---11--------11----11---11------------------
g# -0----------0---------0----------0---------------------
c# ------------------------------------------------------- 
    Burn my knees and...
Chorus
c# -------------------------------------------------------
g# -------------------------------------------------------
e  -------------------------------------------------------
c# -------------------------------------------------------
g# -12-12-12-12-12-12-12-12-12-12-12-12-12-12-12-12---12\-
c# -12-12-12-12-12-12-12-12-12-12-12-10-10-10-10-10------- 
[ Tab from: http://www.guitartabs.cc/tabs/s/silverchair/emotion_sickness_tab.html ]
c# -------------------------------------------------------
g# -------------------------------------------------------
e  -------------------------------------------------------
c# -------------------------------------------------------
g# -12-12-12-12-12-12-12-12-12-12-12-12-12-12-10-10-10-0--
c# -12-12-12-12-12-12-12-12-12-10-10-10-10-10-10-10-10-0-- 
   Emotion sickness
c# -------------------------------------------------------
g# -------------------------------------------------------
e  -------------------------------------------------------
c# -------------------------------------------------------
G# -12-12-12-12-12-12-12-12-12-12-12-12-12-12-10-10-10-10-
C# -12-12-12-12-12-12-12-12-12-10-10-10-10-10-10-10-10-10- 
   Addict with no heroine
c# -------------------------------------------------------
g# -------------------------------------------------------
e  -------------------------------------------------------
c# -------------------------------------------------------
G# -12-12-12-12-12-12-12-12-12-12-12-12-12-12-12-12-12-12-
C# -12-12-12-12-12-12-12-12-12-12-12-10-10-10-10-10-10-10- 
    Emotion sickness
c# -----2-------2-------2-------2----------------------5--
g# -------0-------0-------0-------0-----4-------4------4--
e  ----------------------------------------------------2--
c# ---2-------2-------2-------2-------2---2---2---2----2--
g# -0-------0-------0-------0-------0-------0----------0--
c# ------------------------------------------------------- 
    Distorted eyes when everything is clearly dying
Interlude - calls for two guitars, play together
Gtr. 1
c# -7-----7-----7-----7-----7-----7-----7-----7------7----
g# -0-----0-----0-----0-----0-----0-----0-----0------0----
e  -4-----4-----4-----4-----4-----4-----4-----4------4----
c# -------------------------------------------------------
g# -------------------------------------------------------
c# ------------------------------------------------------- 
Gtr. 2 plays below twice, Gtr. 1 doesn't play 2nd time
c# -------------------------------0---------0--0-\--------
g# -------------------------------0---------0--0-\--------
e  -------------------------------4---------4--4-\--------
c# -7-------7-7-------7-\-5-------5---5-----5--5-\--------
g# -5-------5-5-------5-\-3-3-3-3-3---3-3-3-3--3-\--------
c# ---0-0-0-----0-0-0------------------------------------- 
Gtr. 1
c# -7-----7-----7-----7-----7-----7-----7-----7------7----
g# -0-----0-----0-----0-----0-----0-----0-----0------0----
e  -4-----4-----4-----4-----4-----4-----4-----4------4----
c# -------------------------------------------------------
g# -------------------------------------------------------
c# ------------------------------------------------------- 
Gtr. 2
c# -0----------0--------------0---0-0--0---x-0------------
g# -5-------5--5------------0-0-0-0-0--0-x-x-0------------
e  -4-------4--4-----4------0-0-0-0-0--0-x-x-0------------
c# -0-------0--0-----0-3/7--0---0---0----x---0------------
g# -0-3-3-2-0----3-2-0------1---1---2----x---2-\-12-------
c# ---0-0-0-0----0-0-0------------------------------------
Pre-Chorus
c# -------------------------------------------------------
g# ------12---------13---------13---------12-0------------
e  ---12----12---11----11---14----14---12-----------------
c# -0----------0----------0----------0--------------------
g# -------------------------------------------------------
c# -------------------------------------------------------
   Burn my knees and
c# ---------------0------2-----0--------------------------
g# -----0---3/0------3/0---3-----0------------------------
e  ---2---2-----2-----------------------------------------
c# --------------------------0------0---------------------
g# -3-----------------------------------------------------
c# -------------------------------------------------------

c# -------------------------------------------------------
g# ------12---------13---------13---------12-0------------
e  ---12----12---11----11---14----14---12-----------------
c# -0----------0----------0----------0--------------------
g# -------------------------------------------------------
c# -------------------------------------------------------
   Burn my knees and 
c# ----------------0------2-------0-----------------------
g# -----0---3/0-------3/0---3--------0--------------------
e  ---2---2-----2-----------------------------------------
c# ----------------------------0--------0-----------------
g# -3-----------------------------------------------------
c# -------------------------------------------------------
    pray                                          play twice
Bridge
c# -------------------------------------------------------
g# -------------------------------------------------------
e  -------------------------------------------------------
c# -12-12-12---12-12-12----12-12-12----12-12-12-----------
g# -12-12-12---10-10-10----12-12-12----10-10-10-----------
c# -12-12-12---10-10-10----12-12-12----10-10-10-----------
    Get up     get up      get up      get up ...
c# -------------------------------------------------------
g# -------------------------3------3-3-3---3-3-3---3-3-3--
e  -------------------------0------0-0-0---0-0-0---0-0-0--
c# -12-12-12-12-12-12-------0------0-0-0---3-3-3---3-3-3--
g# -12-12-12-12-12-12-------0------x-x-x---1-1-1---0-0-0--
c# -12-12-12-12-12-12-------0------3-3-3------------------
    won't you starve my    brain?
c# -------------------------------------------------------
g# -0-0-0---3-3-3----3-3-3----5-5-5----3-3-3----3-3-3-----
e  -0-0-0---0-0-0----0-0-0----0-0-0----0-0-0----0-0-0-----
c# -0-0-0---0-0-0----3-3-3----5-5-5----0-0-0----0-0-0-----
g# -0-0-0---x-x-x----1-1-1----3-3-3----0-0-0----x-x-x-----
c# -0-0-0---3-3-3--------------------------0----3-3-3-----

c# -----0-----------------0-------------------------------
g# -3-3-3----5-5-5----3-3-3-------------------------------
e  -0-0-0----0-0-0----0-0-0-------------------------------
c# -3-3-3----5-5-5----2-2-2-------------------------------
g# -1-1-1----3-3-3----3-3-3-------------------------------
c# -------------------------------------------------------
Interlude (played 3 times through)
c# ------------8-------10-------8-------0-----------------
g# ------12------12-------12------12------12--0-----------
e  ---12----12------12-------12------12-------------------
c# -0-----------------------------------------------------
g# -------------------------------------------------------
c# -------------------------------------------------------

c# -------------------------------------0-----------------
g# -------------------------------------------------------
e  -----------9----------------11----------11-------------
c# -----11------11-------10-------10----------------------
g# ---9------------9---8-------------8--------------------
c# -9------9---------8------8----------------------------- end interlude

c# -----------------7---7-\-5---5---5---0------0-2-0-2--0-
g# -----------------8---8-\-5---5---5---0--0---0-3-3-3--0-
e  -----------------9---9-\-7---7---7---0--2---2-2-2-2--0-
c# ---10---11-------0----------------------3---3----------
g# -8------10--------------------------------(1)----------
c# ------8------0-----------------------------------------
                        Emotion sickness
c# ----7-7\--5---5----0-----0-0---2--2--2--3--3---0-------
g# ----8-8\--5---5----0--0--0-0---3--3--3--5--5---0-------
e  ----9-9\--7---7----0--2--2-2---2--2--2--4--4---0-------
c# ----0-----------------3--3-3---------------------------
g# ---------------------(1)-------------------------------
c# -0-----------------------------------------------------
    Addict   with  no    heroine
c# -7--7---5--5----------2--2-----------------------------
g# -8--8---5--5---0--0---3--3-----------------------------
e  -9--9---7--7---2--2---2--2-----------------------------
c# ---------------3--3------------------------------------
g# -------------------------------------------------------
c# -------------------------------------------------------
    Good things will pass (It helps with excess access)
c# -7--7---5--5----------2--2---3--3----------------------
g# -8--8---5--5---0--0---3--3---5--5----------------------
e  -9--9---7--7---2--2---2--2---4--4----------------------
c# ---------------3--3------------------------------------
g# -------------------------------------------------------
c# -------------------------------------------------------
     Lessons learnt
c# -7--7---5--5----------2--2-----------------------------
g# -8--8---5--5---0--0---3--3-----------------------------
e  -9--9---7--7---2--2---2--2-----------------------------
c# ---------------3--3------------------------------------
g# -------------------------------------------------------
c# -------------------------------------------------------
    Emotion sickness
c# -7--7---5--5----------2--2---3--3----------------------
g# -8--8---5--5---0--0---3--3---5--5----------------------
e  -9--9---7--7---2--2---2--2---4--4----------------------
c# ---------------3--3------------------------------------
g# -------------------------------------------------------
c# -------------------------------------------------------
    Lessons learnt, earnt
Outro
c# ------------8-------10-------8-------0-----------------
g# ------12------12-------12------12------12--0-----------
e  ---12----12------12-------12------12-------------------
c# -0-----------------------------------------------------
g# -------------------------------------------------------
c# -------------------------------------------------------

c# -----------------------------0--------0---0------------
g# -------------------------------------------------------
e  -----------11------------------------------------------
c# -----10-------10-------11-------11---------------------
g# ---8-------------8---9-------------9-------------------
c# -8------8----------9-------9---------------------------

c# -------------8-------10-------8--------0--0------------
g# ------12-------12-------12------12-----------0---------
e  ---12----12-------12-------12------12------------------
c# -0-----------------------------------------------------
g# -------------------------------------------------------
c# -------------------------------------------------------

c# -------------0-----------------------------------------
g# -------------------------------------------------------
e  -------------------------------------------------------
c# ------10--------10-----11------------------------------
g# ----8---------------8---9------------------------------
c# -8--------8-------------9------------------------------

That's it.
Comments