Silverchair - Emotion Sickness Chords & Tabs

 

Emotion Sickness Chords & Tabs

Silverchair Chords & Tabs

Version: 3 Type: Bass Tab 0 ratings
1 star 2 stars 3 stars 4 stars 5 stars
comments

Emotion Sickness Bass Tab

4-String, standard tuning, kids! 

Part 1
0:01 - 0:07:
G:|-----------------------------|
D:|-----------------------------|
A:|4-4-4---7-7-7---0-0-0--------| x2
E:|------------------------4-4-4|

Part 2
0:07 - 0:35:
G:|----------------------------------------
D:|----------------------------------------
A:|4-4-4-4---7-7-7-7---0-0-0-0---0-0-0-0--- 
E:|----------------------------------------

-----------------------------------------|
-----------------------------------------|
4-4-4-4---7-7-7-7---0-0-0-0---2--2--2--2-| x2
-----------------------------------------|


Part 1 (0:35 - 0:39) 
Part 2 (0:39 - 0:53) 

0:53 - 1:00 
G:|----------------------------------------|
D:|----------------------------------------|
A:|----------4-4-4-4---3-3-3-3---6-6-6-6---|
E:|4-4-4-4---------------------------------|

1:00 - 1:28 
G:|-----|
D:|-----| 
A:|4----|
E:|----4|
REPEAT 

BREAK (1:28 - 1:31) 

Interlude: 1:31 - 1:46 
G:|----------------------------------------|
D:|----------------------------------------|
A:|4-4-4-4---4-4-4-4---2-2-2-2---2-2-2-2---| x2
E:|----------------------------------------|

Fill 2: 1:46 - 1:53 
G:|----------------------------------------|
D:|----------------------------------------|
A:|4-4-4-4---4-4-4-4---0-0-0-0---2-2-2-2---| 
E:|----------------------------------------|

1:53 - 2:00 
G:|----------------------------------------|
D:|----------------------------------------|
A:|4-4-4-4---4-4-4-4---2-2-2-2---2-2-2-2---|
E:|----------------------------------------|
[ Tab from: http://www.guitartabs.cc/tabs/s/silverchair/emotion_sickness_btab_ver_3.html ]
2:00 - 2:07 
G:|----------------------------------------|
D:|----------------------------------------|
A:|----------4-4-4-4---3-3-3-3---6-6-6-6---|
E:|4-4-4-4---------------------------------|


2:07 - 2:22 
G:|--------------------------------------------------------------|
D:|--------------------------------------------------------------|
A:|4-4-4-4-4---4-4-4---4-4-4-4------2-2-2-2-2---2-2-2---2-2-2-2--| x2
E:|--------------------------------------------------------------|

2:07 - 2:52 
G:|--------------------------------------------------------------|
D:|--------------------------------------------------------------|
A:|4-4-4-4-4---4-4-4---4-4-4-4------0-0-0-0-0---0-0-0---2-2-2-2--| REPEAT 
E:|--------------------------------------------------------------|


2:52 - 3:03 
G:|----------------|
D:|----------------|
A:|4-4-4-4-4-4-4-4-| REPEAT 
E:|----------------|

3:03 - 3:06 
G:|------------------------------------|
D:|------------------------------------|
A:|0-0-0-0-0-0-0-0----2-2-2-2-2-2-2-2--| 
E:|------------------------------------|

3:06 - 3:18 
G:|----------------|
D:|----------------|
A:|4-4-4-4-4-4-4-4-| REPEAT 
E:|----------------|

3:18 - 3:22 
G:|------------------------------------|
D:|------------------------------------|
A:|0-0-0-0-0-0-0-0----2-2-2-2-2-2-2-2--| 
E:|------------------------------------|


3:22 - 3:51 
G:|------------------------------------|
D:|------------------------------------|
A:|7-7-7-7-7-7-7-7----6-6-6-6-6-6-6-6--| 
E:|------------------------------------|

Part 1 - (3:51 - ~ 4:09 let ring out) 

The rest is pretty easy to figure out, so get naked, kids!!! 
danieljamritsch@gmx.at
Comments