Silverchair - Door Chords & Tabs

 

Door Chords & Tabs

Silverchair Chords & Tabs

Version: 1 Type: Tab 0 ratings
1 star 2 stars 3 stars 4 stars 5 stars
comments

Door Tab

   
Song: The Door
Artist: silverchair (yeah! small “s”)
Album: Freak Show
Tabbed by King Of The Eskimos, 6/16/01
Drop-D Tuning

Intro: (Sitar arranged for guitar)
e--------------------------------------------------
B--------------------------------------------------
G----5--x-4--2--0-2-4-2-0--------------------------
D--0-0--x-0--0--0-0-0-0-0--------------------------
A--0-----------------------------------------------
D--0-----------------------------------------------
x4 Clean, x4 w/ distortion

Verse:
e--------------------------------------------------
B--------------------------------------------------
G----5--x-4--2--0-2-4-2-0--------------------------
D--0-0--0-0--0--0-0-0-0-0--------------------------
A--0-----------------------------------------------
D--0-----------------------------------------------
X8

Chorus:
e--------------------------------------------------
B--------------------------------------------------
G--------------------------------------------------
D—-3/5-5-5-5—-3/5-5-5-5—-3/5-5-5-5-----------------
A—-3/5-5-5-5—-3/5-5-5-5—-3/5-5-5-5-----------------
D—-3/5-5-5-5—-3/5-5-5-5—-3/5-5-5-5-----------------
[ Tab from: http://www.guitartabs.cc/tabs/s/silverchair/door_tab.html ]
e--------------------------------------------------
B--------------------------------------------------
G----14-12-11-x-11-12-11-0-------------------------
D--0--0--0--0----0--0--0-0-------------------------
A--0-----------------------------------------------
D--0-----------------------------------------------


e--------------------------------------------------
B--------------------------------------------------
G--------------------------------------------------
D—-3/5-5-5-5—-3/5-5-5-5—-3/5-5-5-5-----------------
A—-3/5-5-5-5—-3/5-5-5-5—-3/5-5-5-5-----------------
D—-3/5-5-5-5—-3/5-5-5-5—-3/5-5-5-5-----------------

Verse, Chorus

Bridge:
e--------------------------------------------------
B--------------------------------------------------
G----5-5--5-5—5b6----------------------------------
D--0-0-0--0-0-0----5-5--3--------------------------
A--0-0-0--0-0-0----5-5--3--------------------------
D--0-0-0--0-0-0----5—5--3--------------------------
x4 (on fourth time let F5 ring)

Verse, Chorus, Bridge x2

Well, that’s about it. I think all the parts are here, 
just arrange them all accordingly. Ummmm...yeah, just 
send any comments/suggestions and or large sums of money 
to kingoftheeskimos@silverchair.org
Thanx for using my tab, and good luck!
Comments