Silverchair - Cemetery Chords & Tabs

 

Cemetery Chords & Tabs

Silverchair Chords & Tabs

Version: 1 Type: Tab 0 ratings
1 star 2 stars 3 stars 4 stars 5 stars
comments

Cemetery Tab

Cemetery
Silverchair

**TUNING**
Drop d (i have the freak show tab book and to all of you who think this song 
is in E, well, it's not. it's actually in drop D)

VERSE 1
E|---|----------------------|-------0-----------|----------------------|
B|---|----------1---0-------|-------0---0-----0-|----------1---0-------|
G|-0-|----0-----0---0-----0-|-------0---0-----0-|----0-----0---0-----0-|
D|-0-|----------------------|---2---------------|----------------------|
A|---|-3-----3--------3-----|-------------2-----|-3-----3--------3-----|
E|---|----------------------|-2---2-------------|----------------------|

E|-------0-----------|---------------------|-------0-----------|
B|-------0---0-------|----------1---0----0-|-------0---0-------|
G|-------0---0-----0-|----0-----0---0----0-|-------0---0-----0-|
D|---2-------------0-|---------------------|---2-------------0-|
A|-------------2-----|-3-----3--------3----|-------------2-----|
E|-2---2-------------|---------------------|-2---2-------------|

E|----------------------|-------0-----------|----------------------|
B|----------1---0-------|-------0---0-----0-|----------1---0-----0-|
G|----0-----0---0-----0-|-------0---0-----0-|----0-----0---0-----0-|
D|--------------------0-|---2---------------|--------------------0-|
A|-3-----3--------3-----|-------------2-----|-3-----3--------3-----|
E|----------------------|-2---2-------------|----------------------|

E|-------0-----------|---------------------|-------0-----------|
B|-------0---0-------|----------1---0----0-|-------0---0-------|
G|-------0---0-----0-|----0-----0---0----0-|-------0---0-----0-|
D|---2-------------0-|-------------------0-|---2-------------0-|
A|-------------2-----|-3-----3--------3----|-------------2-----|
E|-2---2-------------|---------------------|-2---2-------------|

E|------------------------|-------0--------------|
B|----------3-----1-----0-|-------0----0-------0-|
G|----0-----0-----0-----0-|-------0----0-------0-|
D|----------------------0-|---2--------2---2---2-|
A|-3-----3-----3-----3----|----------------2---2-|
E|------------------------|-2---2----------2-----|

E|----------------------|-------------0----------0-|
B|-1------3---3---1---0-|-(0)--0---3----3-0--2---1-|
G|-2------2---2---2-2-2-|-(2)--2---2----2-2--2---0-|
D|-2----------2-------2-|-(2)--2---2----2-2--2---2-|
A|-0----------0-------0-|-(0)--0--------0----0---3-|
E|----------------------|--------------------------|

VERSE 2
E|----------------------|-------0-----------|---------------------|
B|----------1---0-------|-------0---0-------|----------3---1------|
G|----0-----0---0-----0-|-------0---0-----0-|----0-----0---0------|
D|--------------------0-|---2-------------0-|-------------------0-|
A|-3-----3--------3-----|-------------2-----|-3-----3--------3----|
E|----------------------|-2---2-------------|---------------------|

E|-------0---------|---------------------|-------0-----------|
B|-------0---0---0-|----------1---0------|-------0---0-------|
G|-------0---0---0-|----0-----0---0----0-|-------0---0-----0-|
D|---2-------------|-------------------0-|---2-------------0-|
A|-------------2---|-3-----3--------3----|-------------2-----|
E|-2---2-----------|---------------------|-2---2-------------|

E|------------------------|-------0--------------|
B|----------3-----1-----0-|-------0----0-------0-|
G|----------0-----0-----0-|-------0----0-------0-|
D|----2-----------------0-|---2--------2---2---2-|
A|-3-----3-----3-----3----|----------------2---2-|
E|------------------------|-2---2----------2-----|
[ Tab from: http://www.guitartabs.cc/tabs/s/silverchair/cemetery_tab.html ]
E|----------------------|-------------0----------0-|
B|-1------3---3---1---0-|-(0)--0---3----3-0--2---1-|
G|-2------2---2---2-2-2-|-(2)--2---2----2-2--2---0-|
D|-2----------2-------2-|-(2)--2---2----2-2--2---2-|
A|-0----------0-------0-|-(0)--0--------0----0---3-|
E|----------------------|--------------------------|

CHORUS                                             x3
E|--0--0-0--0-0--0-0---0-0---0--0-0-0-0--0-0-0-0/0-0-|
B|--0--0-0--0-0--0-0---3-3---1--1-1-0-0--1-1-1-1/3-3-|
G|--0--0-0--0-0--0-0-x-2-2-0-0--0-0-0-0--0-0-0-0/0-0-|
D|--2--2-2--2-2--2-2-x-0-0-0-2--2-2-2-2--2-2-2-2/4-4-|
A|--2--2-2--2-2--2-2-x-----0-3--3-3-3-3--3-3-3-3/5-5-|
E|--2--2-2--2-2--2-2---------------------------------|

E|--0--0-0--0-0--0-0---0-0---0-|-------|
B|--0--0-0--0-0--0-0---3-3---1-|-------|
G|--0--0-0--0-0--0-0-x-2-2-0-0-|-0---0-|
D|--2--2-2--2-2--2-2-x-0-0-0-2-|-------|
A|--2--2-2--2-2--2-2-x-----0-3-|---3---|
E|--2--2-2--2-2--2-2-----------|-------|

INTERLUDE
E|----------------------|---------------------------|
B|----------------------|-------------------------0-|  (play 4 times)
G|----------------------|-------------------------0-|
D|-2--2/7--7--7\5-5--5--|-0--2--2/7-7--7\5\3--3---0-|
A|-2--2/7--7--7\5-5--5--|-0--2--2/7-7--7\5\3--3---0-|
D|-2--2/7--7--7\5-5--5--|-0--2--2/7-7--7\5\3--3---0-|

strum F first from interlude then:
E|------------------------|-------0-----------|----------------------|
B|------------1---0-------|-------0---0-------|----------1/3--3-3----|
G|-0----0-----0---0-----0-|-------0---0-----0-|----0-----0/0--0-0--0-|
D|-0--------------------0-|---2-------------0-|----------2/4--4-4--0-|
A|---3-----3--------3-----|-------------2-----|-3-----3-(3/5)-5-5----|
E|------------------------|-2---2-------------|----------------------|

E|-------0-----------|------------------------|-------0-----------|
B|-------0---0-------|----------3-----1-----0-|-------0---0-------|
G|-------0---0-----0-|----0-----0-----0-----0-|-------0---0-----0-|
D|---2-------------0-|----------------------0-|---2-------------0-|
A|-------------2-----|-3-----3-----3-----3----|-------------2-----|
E|-2---2-------------|------------------------|-2---2-------------|

E|----------------------|
B|----------1/3--3-3----|
G|----0-----0/0--0-0--0-|
D|----------2/4--4-4--0-|
A|-3-----3-(3/5)-5-5----|
E|----------------------|

CHORUS
E|--0--0-0--0-0--0-0---0-0---0--0-0-0-0--0-0-0-0/0-0-|
B|--0--0-0--0-0--0-0---3-3---1--1-1-0-0--1-1-1-1/3-3-| (play 6 times)
G|--0--0-0--0-0--0-0-x-2-2-0-0--0-0-0-0--0-0-0-0/0-0-|
D|--2--2-2--2-2--2-2-x-0-0-0-2--2-2-2-2--2-2-2-2/4-4-|
A|--2--2-2--2-2--2-2-x-----0-3--3-3-3-3--3-3-3-3/5-5-|
E|--2--2-2--2-2--2-2---------------------------------|

E|--0--0-0--0-0--0-0---0-0---0-|
B|--0--0-0--0-0--0-0---3-3---1-|
G|--0--0-0--0-0--0-0-x-2-2-0-0-|
D|--2--2-2--2-2--2-2-x-0-0-0-2-|
A|--2--2-2--2-2--2-2-x-----0-3-|
E|--2--2-2--2-2--2-2-----------|

OUTRO
E|-------------------------------------------------------|
B|-------------1-0-0-------1-0-0-------1-0-0-------1-0-0-|
G|-0---0---0---0-0-----0---0-0-----0---0-0-----0---0-0---|
D|---2---------------------------------------------------|
A|-------3---3-------3---3-------3---3-------3---3-------|
E|-------------------------------------------------------|

E|-------------------------------------------------|
B|-------1-0-0-------1-0-0-------1-0-0-------1-0-0-|
G|---0---0-0-----0---0-0-----0---0-0-----0---0-0---|
D|-------------------------------------------------|
A|-3---3-------3---3-------3---3-------3---3-------|
E|-------------------------------------------------|

E|------0---0-|
B|----------0-|
G|--------0-0-|
D|---2------2-|
A|----------2-|
E|-2--------0-|
            *Sweep pick the last note





_________________________________________________________________
Get your FREE download of MSN Explorer at http://explorer.msn.com/intl.asp



Comments