Silverchair - Cemetery Chords & Tabs

 

Cemetery Chords & Tabs

Silverchair Chords & Tabs

Version: 1 Type: Chords 1 rating
1 star 2 stars 3 stars 4 stars 5 stars
comments

Cemetery Chords

   
Song-Cemetery
Band-silverchair
Album-Freak Show


**TUNING**
standard

**KEY**
/-slide up
h-hammer on
~-trill the note, vibrato, blah whatever ya want to call it
^-upstroke
v-downstroke



VERSE 1
   C                          Em                 C
E|---|----------------------|-------0-----------|----------------------|
B|---|----------1---0-------|-------0---0-----0-|----------1---0-------|
G|-0-|----0-----0---0-----0-|-------0---0-----0-|----0-----0---0-----0-|
D|-0-|----------------------|---2---------------|----------------------|
A|---|-3-----3--------3-----|-------------2-----|-3-----3--------3-----|
E|---|----------------------|-0---0-------------|----------------------|

   Em                  C                     Em
E|-------0-----------|---------------------|-------0-----------|
B|-------0---0-------|----------1---0----0-|-------0---0-------|
G|-------0---0-----0-|----0-----0---0----0-|-------0---0-----0-|
D|---2-------------0-|---------------------|---2-------------0-|
A|-------------2-----|-3-----3--------3----|-------------2-----|
E|-0---0-------------|---------------------|-0---0-------------|

   C                      Em                  C
E|----------------------|-------0-----------|----------------------|
B|----------1---0-------|-------0---0-----0-|----------1---0-----0-|
G|----0-----0---0-----0-|-------0---0-----0-|----0-----0---0-----0-|
D|--------------------0-|---2---------------|--------------------0-|
A|-3-----3--------3-----|-------------2-----|-3-----3--------3-----|
E|----------------------|-0---0-------------|----------------------|

   Em                  C                     Em
E|-------0-----------|---------------------|-------0-----------|
B|-------0---0-------|----------1---0----0-|-------0---0-------|
G|-------0---0-----0-|----0-----0---0----0-|-------0---0-----0-|
D|---2-------------0-|-------------------0-|---2-------------0-|
A|-------------2-----|-3-----3--------3----|-------------2-----|
E|-0---0-------------|---------------------|-0---0-------------|

   Cadd9       C            Em
E|------------------------|-------0--------------|
B|----------3-----1-----0-|-------0----0-------0-|
G|----0-----0-----0-----0-|-------0----0-------0-|
D|----------------------0-|---2--------2---2---2-|
A|-3-----3-----3-----3----|----------------2---2-|
E|------------------------|-0---0----------0-----|
   A5    A9sus4
E|----------------------|--------------------0-|
B|-----2--3---3-------3-|-3--3---3--3--3-x-x-3-|
G|-2---2--4---4---2---4-|-4--4---4--4--4-x-x-0-|
D|-2---2--2---2---2---2-|-2--2---2--2--2-x-x-2-|
A|-0--------------------|--------------------3-|
E|----------------------|----------------------|

VERSE 2
   C                      Em                  Cadd9        C
E|----------------------|-------0-----------|---------------------|
B|----------1---0-------|-------0---0-------|----------3---1------|
G|----0-----0---0-----0-|-------0---0-----0-|----0-----0---0------|
D|--------------------0-|---2-------------0-|-------------------0-|
A|-3-----3--------3-----|-------------2-----|-3-----3--------3----|
E|----------------------|-0---0-------------|---------------------|

   Em                C                     Em
E|-------0---------|---------------------|-------0-----------|
B|-------0---0---0-|----------1---0------|-------0---0-------|
G|-------0---0---0-|----0-----0---0----0-|-------0---0-----0-|
D|---2-------------|-------------------0-|---2-------------0-|
A|-------------2---|-3-----3--------3----|-------------2-----|
E|-0---0-----------|---------------------|-0---0-------------|

   Cadd9          C         Em
E|------------------------|-------0--------------|
B|----------3-----1-----0-|-------0----0-------0-|
G|----------0-----0-----0-|-------0----0-------0-|
D|----2-----------------0-|---2--------2---2---2-|
A|-3-----3-----3-----3----|----------------2---2-|
E|------------------------|-0---0----------0-----|

(GTR 2 plays:
G|--12-11--|  then  |--11-11/12--| in the background)

   A5    A9sus4
E|----------------------|--------------------0-|
B|-----2--3---3-------3-|-3--3---3--3--3-x-x-3-|
G|-2---2--4---4---2---4-|-4--4---4--4--4-x-x-0-|
D|-2---2--2---2---2---2-|-2--2---2--2--2-x-x-2-|
A|-0--------------------|--------------------3-|
E|----------------------|----------------------|
[ Tab from: http://www.guitartabs.cc/tabs/s/silverchair/cemetery_crd.html ]
CHORUS 
E|--0--0-0--0-0--0-0---0-0---0--0-0-0-0--0-0-0-0/0-0-|
B|--0--0-0--0-0--0-0---3-3---1--1-1-0-0--1-1-1-1/3-3-|
G|--0--0-0--0-0--0-0-x-2-2-0-0--0-0-0-0--0-0-0-0/0-0-|  (play 3 times)
D|--2--2-2--2-2--2-2-x-0-0-0-2--2-2-2-2--2-2-2-2/4-4-|
A|--2--2-2--2-2--2-2-x-----0-3--3-3-3-3--3-3-3-3/5-5-|
E|--0--0-0--0-0--0-0---------------------------------|

E|--0--0-0--0-0--0-0---0-0---0-|-------|
B|--0--0-0--0-0--0-0---3-3---1-|-------|
G|--0--0-0--0-0--0-0-x-2-2-0-0-|-0---0-|
D|--2--2-2--2-2--2-2-x-0-0-0-2-|-------|
A|--2--2-2--2-2--2-2-x-----0-3-|---3---|
E|--0--0-0--0-0--0-0-----------|-------|

INTERLUDE
THERES TWO METHODS TO PLAY THIS:
1.(GTR tuned to Dropped-D)   
E|----------------------|-----------------------|
B|----------------------|-----------------------|  (play 4 times)
G|----------------------|-----------------------|
D|-2--2/7--7--7\5--0--0-|-0--2--2/7-7--7\5\3--3-|
A|-2--2/7--7--7\5--0--0-|-0--2--2/7-7--7\5\3--3-|
D|-2--2/7--7--7\5--0--0-|-0--2--2/7-7--7\5\3--3-|

2. Live Version               
   Em      D    G    D           Em      D    G    F
E|-0--0----2-2--3-3--2-2---2-2---0--0----2-2--3-3--1-1--1-1---|
A|-0--0-0--3-3--3-3--3-3---3-3-0-0--0-0--3-3--3-3--1-1--1-1-0-| (play
D|-0--0-0--2-2--0-0--2-2---2-2-0-0--0-0--2-2--0-0--2-2--2-2-0-|  4 times)
G|-2--2-0--0-0--0-0--0-0-------0-2--2-0--0-0--0-0--3-3--3-3-0-|
B|-2--2---------2-2--------------2--2---------2-2--3-3--3-3---|
E|-0--0---------3-3--------------0--0---------3-3--1-1--1-1---|
   v  v v  ^ v  ^ v  ^ v   ^ v ^ v  v v  ^ v  ^ v  ^ v  ^ v ^

GTR 2 plays with orchestra in background
           ~~~                         ~~~
E|-----------|---------------|-----------|----------------|
B|-----------|---------------|-----------|----------------|
G|-/12-11--9-|---------------|-/12-11--9-|----------------|
D|-----------|-9-9h10----9-9-|-----------|-9--9h10----9-9-|
A|-----------|---------------|-----------|----------------|
E|-----------|---------------|-----------|----------------|

followed by:

strum F first from interlude then:   C                        Em                  C
E|------------------------|-------0-----------|----------------------|
B|------------1---0-------|-------0---0-------|----------1/3--3-3----|
G|-0----0-----0---0-----0-|-------0---0-----0-|----0-----0/0--0-0--0-|
D|-0--------------------0-|---2-------------0-|----------2/4--4-4--0-|
A|---3-----3--------3-----|-------------2-----|-3-----3-(3/5)-5-5----|
E|------------------------|-0---0-------------|----------------------|

   Em                  Cadd9       C            Em
E|-------0-----------|------------------------|-------0-----------|
B|-------0---0-------|----------3-----1-----0-|-------0---0-------|
G|-------0---0-----0-|----0-----0-----0-----0-|-------0---0-----0-|
D|---2-------------0-|----------------------0-|---2-------------0-|
A|-------------2-----|-3-----3-----3-----3----|-------------2-----|
E|-0---0-------------|------------------------|-0---0-------------|

   C
E|----------------------|
B|----------1/3--3-3----|
G|----0-----0/0--0-0--0-|
D|----------2/4--4-4--0-|
A|-3-----3-(3/5)-5-5----|
E|----------------------|

CHORUS
E|--0--0-0--0-0--0-0---0-0---0--0-0-0-0--0-0-0-0/0-0-|
B|--0--0-0--0-0--0-0---3-3---1--1-1-0-0--1-1-1-1/3-3-| (play 6 times)
G|--0--0-0--0-0--0-0-x-2-2-0-0--0-0-0-0--0-0-0-0/0-0-|
D|--2--2-2--2-2--2-2-x-0-0-0-2--2-2-2-2--2-2-2-2/4-4-|
A|--2--2-2--2-2--2-2-x-----0-3--3-3-3-3--3-3-3-3/5-5-|
E|--0--0-0--0-0--0-0---------------------------------|

E|--0--0-0--0-0--0-0---0-0---0-|
B|--0--0-0--0-0--0-0---3-3---1-|
G|--0--0-0--0-0--0-0-x-2-2-0-0-|
D|--2--2-2--2-2--2-2-x-0-0-0-2-|
A|--2--2-2--2-2--2-2-x-----0-3-|
E|--0--0-0--0-0--0-0-----------|

OUTRO
    C                 C           C           C
E|-------------------------------------------------------|
B|-------------1-0-0-------1-0-0-------1-0-0-------1-0-0-|
G|-0---0---0---0-0-----0---0-0-----0---0-0-----0---0-0---|
D|---2---------------------------------------------------|
A|-------3---3-------3---3-------3---3-------3---3-------|
E|-------------------------------------------------------|
    C            C           C           C
E|-------------------------------------------------|
B|-------1-0-0-------1-0-0-------1-0-0-------1-0-0-|
G|---0---0-0-----0---0-0-----0---0-0-----0---0-0---|
D|-------------------------------------------------|
A|-3---3-------3---3-------3---3-------3---3-------|
E|-------------------------------------------------|
     E      E
E|----------0-|
B|-------0--0-|
G|-----0----0-|
D|---2------2-|
A|-2--------2-|
E|----------0-|
            ^ (sweep pick)
Comments